  0
SECTION
  2
HEADER
  9
$ACADVER
  1
AC1014
  9
$ACADMAINTVER
 70
     9
  9
$DWGCODEPAGE
  3
ANSI_1252
  9
$INSBASE
 10
0.0
 20
0.0
 30
0.0
  9
$EXTMIN
 10
2.977844269687594
 20
-0.7102660931533507
 30
-0.0015258207003583
  9
$EXTMAX
 10
22.06475834043784
 20
7.592651386503888
 30
0.0000000349246037
  9
$LIMMIN
 10
0.0
 20
0.0
  9
$LIMMAX
 10
12.0
 20
9.0
  9
$ORTHOMODE
 70
     0
  9
$REGENMODE
 70
     1
  9
$FILLMODE
 70
     1
  9
$QTEXTMODE
 70
     0
  9
$MIRRTEXT
 70
     1
  9
$DRAGMODE
 70
     2
  9
$LTSCALE
 40
1.0
  9
$OSMODE
 70
    37
  9
$ATTMODE
 70
     1
  9
$TEXTSIZE
 40
0.2
  9
$TRACEWID
 40
0.05
  9
$TEXTSTYLE
  7
STANDARD
  9
$CLAYER
  8
0
  9
$CELTYPE
  6
BYLAYER
  9
$CECOLOR
 62
   256
  9
$CELTSCALE
 40
1.0
  9
$DELOBJ
 70
     1
  9
$DISPSILH
 70
     0
  9
$DIMSCALE
 40
1.0
  9
$DIMASZ
 40
0.18
  9
$DIMEXO
 40
0.0625
  9
$DIMDLI
 40
0.38
  9
$DIMRND
 40
0.0
  9
$DIMDLE
 40
0.0
  9
$DIMEXE
 40
0.18
  9
$DIMTP
 40
0.0
  9
$DIMTM
 40
0.0
  9
$DIMTXT
 40
0.18
  9
$DIMCEN
 40
0.09
  9
$DIMTSZ
 40
0.0
  9
$DIMTOL
 70
     0
  9
$DIMLIM
 70
     0
  9
$DIMTIH
 70
     1
  9
$DIMTOH
 70
     1
  9
$DIMSE1
 70
     0
  9
$DIMSE2
 70
     0
  9
$DIMTAD
 70
     0
  9
$DIMZIN
 70
     0
  9
$DIMBLK
  1

  9
$DIMASO
 70
     1
  9
$DIMSHO
 70
     1
  9
$DIMPOST
  1

  9
$DIMAPOST
  1

  9
$DIMALT
 70
     0
  9
$DIMALTD
 70
     2
  9
$DIMALTF
 40
25.4
  9
$DIMLFAC
 40
1.0
  9
$DIMTOFL
 70
     0
  9
$DIMTVP
 40
0.0
  9
$DIMTIX
 70
     0
  9
$DIMSOXD
 70
     0
  9
$DIMSAH
 70
     0
  9
$DIMBLK1
  1

  9
$DIMBLK2
  1

  9
$DIMSTYLE
  2
STANDARD
  9
$DIMCLRD
 70
     0
  9
$DIMCLRE
 70
     0
  9
$DIMCLRT
 70
     0
  9
$DIMTFAC
 40
1.0
  9
$DIMGAP
 40
0.09
  9
$DIMJUST
 70
     0
  9
$DIMSD1
 70
     0
  9
$DIMSD2
 70
     0
  9
$DIMTOLJ
 70
     1
  9
$DIMTZIN
 70
     0
  9
$DIMALTZ
 70
     0
  9
$DIMALTTZ
 70
     0
  9
$DIMFIT
 70
     5
  9
$DIMUPT
 70
     0
  9
$DIMUNIT
 70
     2
  9
$DIMDEC
 70
     4
  9
$DIMTDEC
 70
     4
  9
$DIMALTU
 70
     2
  9
$DIMALTTD
 70
     2
  9
$DIMTXSTY
  7
STANDARD
  9
$DIMAUNIT
 70
     0
  9
$LUNITS
 70
     2
  9
$LUPREC
 70
     4
  9
$SKETCHINC
 40
0.1
  9
$FILLETRAD
 40
0.0
  9
$AUNITS
 70
     0
  9
$AUPREC
 70
     0
  9
$MENU
  1
acad
  9
$ELEVATION
 40
0.0
  9
$PELEVATION
 40
0.0
  9
$THICKNESS
 40
0.0
  9
$LIMCHECK
 70
     0
  9
$BLIPMODE
 70
     0
  9
$CHAMFERA
 40
0.0
  9
$CHAMFERB
 40
0.0
  9
$CHAMFERC
 40
0.0
  9
$CHAMFERD
 40
0.0
  9
$SKPOLY
 70
     0
  9
$TDCREATE
 40
2452396.522303240
  9
$TDUPDATE
 40
2452396.582056377
  9
$TDINDWG
 40
0.0073954630
  9
$TDUSRTIMER
 40
0.0073954630
  9
$USRTIMER
 70
     1
  9
$ANGBASE
 50
0.0
  9
$ANGDIR
 70
     0
  9
$PDMODE
 70
     0
  9
$PDSIZE
 40
0.0
  9
$PLINEWID
 40
0.0
  9
$COORDS
 70
     2
  9
$SPLFRAME
 70
     0
  9
$SPLINETYPE
 70
     6
  9
$SPLINESEGS
 70
     8
  9
$ATTDIA
 70
     0
  9
$ATTREQ
 70
     1
  9
$HANDLING
 70
-16383
  9
$HANDSEED
  5
4049
  9
$SURFTAB1
 70
     6
  9
$SURFTAB2
 70
     6
  9
$SURFTYPE
 70
     6
  9
$SURFU
 70
     6
  9
$SURFV
 70
     6
  9
$UCSNAME
  2

  9
$UCSORG
 10
0.0
 20
0.0
 30
0.0
  9
$UCSXDIR
 10
1.0
 20
0.0
 30
0.0
  9
$UCSYDIR
 10
0.0
 20
1.0
 30
0.0
  9
$PUCSNAME
  2

  9
$PUCSORG
 10
0.0
 20
0.0
 30
0.0
  9
$PUCSXDIR
 10
1.0
 20
0.0
 30
0.0
  9
$PUCSYDIR
 10
0.0
 20
1.0
 30
0.0
  9
$USERI1
 70
     0
  9
$USERI2
 70
     0
  9
$USERI3
 70
     0
  9
$USERI4
 70
     0
  9
$USERI5
 70
     0
  9
$USERR1
 40
0.0
  9
$USERR2
 40
0.0
  9
$USERR3
 40
0.0
  9
$USERR4
 40
0.0
  9
$USERR5
 40
0.0
  9
$WORLDVIEW
 70
     1
  9
$SHADEDGE
 70
     3
  9
$SHADEDIF
 70
    70
  9
$TILEMODE
 70
     1
  9
$MAXACTVP
 70
    16
  9
$PINSBASE
 10
0.0
 20
0.0
 30
0.0
  9
$PLIMCHECK
 70
     0
  9
$PEXTMIN
 10
1.000000000000000E+20
 20
1.000000000000000E+20
 30
1.000000000000000E+20
  9
$PEXTMAX
 10
-1.000000000000000E+20
 20
-1.000000000000000E+20
 30
-1.000000000000000E+20
  9
$PLIMMIN
 10
0.0
 20
0.0
  9
$PLIMMAX
 10
12.0
 20
9.0
  9
$UNITMODE
 70
     0
  9
$VISRETAIN
 70
     0
  9
$PLINEGEN
 70
     0
  9
$PSLTSCALE
 70
     1
  9
$TREEDEPTH
 70
  3020
  9
$PICKSTYLE
 70
     0
  9
$CMLSTYLE
  2
STANDARD
  9
$CMLJUST
 70
     0
  9
$CMLSCALE
 40
1.0
  9
$PROXYGRAPHICS
 70
     1
  9
$MEASUREMENT
 70
     0
  0
ENDSEC
  0
SECTION
  2
CLASSES
  0
CLASS
  1
ACDBDICTIONARYWDFLT
  2
AcDbDictionaryWithDefault
  3
AutoCAD 2000
 90
        0
280
     0
281
     0
  0
CLASS
  1
ACDBPLACEHOLDER
  2
AcDbPlaceHolder
  3
AutoCAD 2000
 90
        0
280
     0
281
     0
  0
CLASS
  1
LAYOUT
  2
AcDbLayout
  3
AutoCAD 2000
 90
        0
280
     0
281
     0
  0
CLASS
  1
LONG_TRANSACTION
  2
AcDbLongTransaction
  3
AutoCAD 2000
 90
        0
280
     0
281
     0
  0
CLASS
  1
LWPOLYLINE
  2
AcDbPolyline
  3
AutoCAD 2000
 90
        0
280
     0
281
     1
  0
CLASS
  1
HATCH
  2
AcDbHatch
  3
AutoCAD 2000
 90
        0
280
     0
281
     1
  0
CLASS
  1
XRECORD
  2
AcDbXrecord
  3
AutoCAD 2000
 90
        0
280
     0
281
     0
  0
ENDSEC
  0
SECTION
  2
TABLES
  0
TABLE
  2
VPORT
  5
8
330
0
100
AcDbSymbolTable
 70
     3
  0
VPORT
  5
4023
330
8
100
AcDbSymbolTableRecord
100
AcDbViewportTableRecord
  2
*ACTIVE
 70
     0
 10
0.0
 20
0.0
 11
1.0
 21
1.0
 12
12.52130130506272
 22
3.441192646675268
 13
0.0
 23
0.0
 14
1.0
 24
1.0
 15
0.0
 25
0.0
 16
0.0
 26
0.0
 36
1.0
 17
0.0
 27
0.0
 37
0.0
 40
12.80425004064606
 41
1.498659517426273
 42
50.0
 43
0.0
 44
0.0
 50
0.0
 51
0.0
 71
     0
 72
   100
 73
     1
 74
     1
 75
     0
 76
     0
 77
     0
 78
     0
  0
ENDTAB
  0
TABLE
  2
LTYPE
  5
5
330
0
100
AcDbSymbolTable
 70
    25
  0
LTYPE
  5
13
330
5
100
AcDbSymbolTableRecord
100
AcDbLinetypeTableRecord
  2
BYBLOCK
 70
     0
  3

 72
    65
 73
     0
 40
0.0
  0
LTYPE
  5
14
330
5
100
AcDbSymbolTableRecord
100
AcDbLinetypeTableRecord
  2
BYLAYER
 70
     0
  3

 72
    65
 73
     0
 40
0.0
  0
LTYPE
  5
15
330
5
100
AcDbSymbolTableRecord
100
AcDbLinetypeTableRecord
  2
CONTINUOUS
 70
     0
  3
Solid line
 72
    65
 73
     0
 40
0.0
  0
LTYPE
  5
22
330
5
100
AcDbSymbolTableRecord
100
AcDbLinetypeTableRecord
  2
BORDER
 70
     0
  3
__ __ . __ __ . __ __ . __ __ . __ __ . __ __ .
 72
    65
 73
     6
 40
1.75
 49
0.5
 74
     0
 49
-0.25
 74
     0
 49
0.5
 74
     0
 49
-0.25
 74
     0
 49
0.5
 74
     0
 49
-0.25
 74
     0
  0
LTYPE
  5
23
330
5
100
AcDbSymbolTableRecord
100
AcDbLinetypeTableRecord
  2
BORDER2
 70
     0
  3
__.__.__.__.__.__.__.__.__.__.__.__.__.__.__.__
 72
    65
 73
     6
 40
0.875
 49
0.25
 74
     0
 49
-0.125
 74
     0
 49
0.25
 74
     0
 49
-0.125
 74
     0
 49
0.25
 74
     0
 49
-0.125
 74
     0
  0
LTYPE
  5
24
330
5
100
AcDbSymbolTableRecord
100
AcDbLinetypeTableRecord
  2
BORDERX2
 70
     0
  3
____  ____  .  ____  ____  .  
 72
    65
 73
     6
 40
3.5
 49
1.0
 74
     0
 49
-0.5
 74
     0
 49
1.0
 74
     0
 49
-0.5
 74
     0
 49
1.0
 74
     0
 49
-0.5
 74
     0
  0
LTYPE
  5
25
330
5
100
AcDbSymbolTableRecord
100
AcDbLinetypeTableRecord
  2
CENTER
 70
     0
  3
____ _ ____ _ ____ _ ____ _ ____ _ ____ _ ____
 72
    65
 73
     4
 40
2.0
 49
1.25
 74
     0
 49
-0.25
 74
     0
 49
0.25
 74
     0
 49
-0.25
 74
     0
  0
LTYPE
  5
26
330
5
100
AcDbSymbolTableRecord
100
AcDbLinetypeTableRecord
  2
CENTER2
 70
     0
  3
____ _ ____ _ ____ _ ____ _ ____ _ ____ _ ____
 72
    65
 73
     4
 40
1.125
 49
0.75
 74
     0
 49
-0.125
 74
     0
 49
0.125
 74
     0
 49
-0.125
 74
     0
  0
LTYPE
  5
27
330
5
100
AcDbSymbolTableRecord
100
AcDbLinetypeTableRecord
  2
CENTERX2
 70
     0
  3
________  __  ________  __  ________  __  
 72
    65
 73
     4
 40
4.0
 49
2.5
 74
     0
 49
-0.5
 74
     0
 49
0.5
 74
     0
 49
-0.5
 74
     0
  0
LTYPE
  5
28
330
5
100
AcDbSymbolTableRecord
100
AcDbLinetypeTableRecord
  2
DASHDOT
 70
     0
  3
__ . __ . __ . __ . __ . __ . __ . 
 72
    65
 73
     4
 40
1.0
 49
0.5
 74
     0
 49
-0.25
 74
     0
 49
0.0
 74
     0
 49
-0.25
 74
     0
  0
LTYPE
  5
29
330
5
100
AcDbSymbolTableRecord
100
AcDbLinetypeTableRecord
  2
DASHDOT2
 70
     0
  3
_._._._._._._._._._._._._._._._.
 72
    65
 73
     4
 40
0.5
 49
0.25
 74
     0
 49
-0.125
 74
     0
 49
0.0
 74
     0
 49
-0.125
 74
     0
  0
LTYPE
  5
2A
330
5
100
AcDbSymbolTableRecord
100
AcDbLinetypeTableRecord
  2
DASHDOTX2
 70
     0
  3
____  .  ____  .  ____  .  ____  .  
 72
    65
 73
     4
 40
2.0
 49
1.0
 74
     0
 49
-0.5
 74
     0
 49
0.0
 74
     0
 49
-0.5
 74
     0
  0
LTYPE
  5
2B
330
5
100
AcDbSymbolTableRecord
100
AcDbLinetypeTableRecord
  2
DASHED
 70
     0
  3
__ __ __ __ __ __ __ __ __ __ __ __ 
 72
    65
 73
     2
 40
0.75
 49
0.5
 74
     0
 49
-0.25
 74
     0
  0
LTYPE
  5
2C
330
5
100
AcDbSymbolTableRecord
100
AcDbLinetypeTableRecord
  2
DASHED2
 70
     0
  3
_ _ _ _ _ _ _ _ _ _ _ _ _ _ _ _ _ _ 
 72
    65
 73
     2
 40
0.375
 49
0.25
 74
     0
 49
-0.125
 74
     0
  0
LTYPE
  5
2D
330
5
100
AcDbSymbolTableRecord
100
AcDbLinetypeTableRecord
  2
DASHEDX2
 70
     0
  3
____  ____  ____  ____  ____  ____  
 72
    65
 73
     2
 40
1.5
 49
1.0
 74
     0
 49
-0.5
 74
     0
  0
LTYPE
  5
2E
330
5
100
AcDbSymbolTableRecord
100
AcDbLinetypeTableRecord
  2
DIVIDE
 70
     0
  3
____ . . ____ . . ____ . . ____ . . 
 72
    65
 73
     6
 40
1.25
 49
0.5
 74
     0
 49
-0.25
 74
     0
 49
0.0
 74
     0
 49
-0.25
 74
     0
 49
0.0
 74
     0
 49
-0.25
 74
     0
  0
LTYPE
  5
2F
330
5
100
AcDbSymbolTableRecord
100
AcDbLinetypeTableRecord
  2
DIVIDE2
 70
     0
  3
__..__..__..__..__..__..__..__..__..
 72
    65
 73
     6
 40
0.625
 49
0.25
 74
     0
 49
-0.125
 74
     0
 49
0.0
 74
     0
 49
-0.125
 74
     0
 49
0.0
 74
     0
 49
-0.125
 74
     0
  0
LTYPE
  5
30
330
5
100
AcDbSymbolTableRecord
100
AcDbLinetypeTableRecord
  2
DIVIDEX2
 70
     0
  3
________  .  .  ________  .  .  ________  .  . 
 72
    65
 73
     6
 40
2.5
 49
1.0
 74
     0
 49
-0.5
 74
     0
 49
0.0
 74
     0
 49
-0.5
 74
     0
 49
0.0
 74
     0
 49
-0.5
 74
     0
  0
LTYPE
  5
31
330
5
100
AcDbSymbolTableRecord
100
AcDbLinetypeTableRecord
  2
DOT
 70
     0
  3
. . . . . . . . . . . . . . . . . . 
 72
    65
 73
     2
 40
0.25
 49
0.0
 74
     0
 49
-0.25
 74
     0
  0
LTYPE
  5
32
330
5
100
AcDbSymbolTableRecord
100
AcDbLinetypeTableRecord
  2
DOT2
 70
     0
  3
....................................
 72
    65
 73
     2
 40
0.125
 49
0.0
 74
     0
 49
-0.125
 74
     0
  0
LTYPE
  5
33
330
5
100
AcDbSymbolTableRecord
100
AcDbLinetypeTableRecord
  2
DOTX2
 70
     0
  3
.  .  .  .  .  .  .  .  .  .  .  .  .  
 72
    65
 73
     2
 40
0.5
 49
0.0
 74
     0
 49
-0.5
 74
     0
  0
LTYPE
  5
34
330
5
100
AcDbSymbolTableRecord
100
AcDbLinetypeTableRecord
  2
HIDDEN
 70
     0
  3
__ __ __ __ __ __ __ __ __ __ __ __ 
 72
    65
 73
     2
 40
0.375
 49
0.25
 74
     0
 49
-0.125
 74
     0
  0
LTYPE
  5
35
330
5
100
AcDbSymbolTableRecord
100
AcDbLinetypeTableRecord
  2
HIDDEN2
 70
     0
  3
_ _ _ _ _ _ _ _ _ _ _ _ _ _ _ _ _ _ 
 72
    65
 73
     2
 40
0.1875
 49
0.125
 74
     0
 49
-0.0625
 74
     0
  0
LTYPE
  5
36
330
5
100
AcDbSymbolTableRecord
100
AcDbLinetypeTableRecord
  2
HIDDENX2
 70
     0
  3
____ ____ ____ ____ ____ ____ ____ 
 72
    65
 73
     2
 40
0.75
 49
0.5
 74
     0
 49
-0.25
 74
     0
  0
LTYPE
  5
37
330
5
100
AcDbSymbolTableRecord
100
AcDbLinetypeTableRecord
  2
PHANTOM
 70
     0
  3
______  __  __  ______  __  __  
 72
    65
 73
     6
 40
2.5
 49
1.25
 74
     0
 49
-0.25
 74
     0
 49
0.25
 74
     0
 49
-0.25
 74
     0
 49
0.25
 74
     0
 49
-0.25
 74
     0
  0
LTYPE
  5
38
330
5
100
AcDbSymbolTableRecord
100
AcDbLinetypeTableRecord
  2
PHANTOM2
 70
     0
  3
___ _ _ ___ _ _ ___ _ _ ___ _ _ 
 72
    65
 73
     6
 40
1.25
 49
0.625
 74
     0
 49
-0.125
 74
     0
 49
0.125
 74
     0
 49
-0.125
 74
     0
 49
0.125
 74
     0
 49
-0.125
 74
     0
  0
LTYPE
  5
39
330
5
100
AcDbSymbolTableRecord
100
AcDbLinetypeTableRecord
  2
PHANTOMX2
 70
     0
  3
___ _ _ ___ _ _ ___ _ _ ___ _ _ 
 72
    65
 73
     6
 40
5.0
 49
2.5
 74
     0
 49
-0.5
 74
     0
 49
0.5
 74
     0
 49
-0.5
 74
     0
 49
0.5
 74
     0
 49
-0.5
 74
     0
  0
ENDTAB
  0
TABLE
  2
LAYER
  5
2
330
0
100
AcDbSymbolTable
 70
   256
  0
LAYER
  5
10
330
2
100
AcDbSymbolTableRecord
100
AcDbLayerTableRecord
  2
0
 70
     0
 62
     7
  6
CONTINUOUS
  0
LAYER
  5
3A
330
2
100
AcDbSymbolTableRecord
100
AcDbLayerTableRecord
  2
1
 70
     0
 62
     1
  6
CONTINUOUS
  0
LAYER
  5
3B
330
2
100
AcDbSymbolTableRecord
100
AcDbLayerTableRecord
  2
2
 70
     0
 62
     2
  6
CONTINUOUS
  0
LAYER
  5
3C
330
2
100
AcDbSymbolTableRecord
100
AcDbLayerTableRecord
  2
3
 70
     0
 62
     3
  6
CONTINUOUS
  0
LAYER
  5
3D
330
2
100
AcDbSymbolTableRecord
100
AcDbLayerTableRecord
  2
4
 70
     0
 62
     4
  6
CONTINUOUS
  0
LAYER
  5
3E
330
2
100
AcDbSymbolTableRecord
100
AcDbLayerTableRecord
  2
5
 70
     0
 62
     5
  6
CONTINUOUS
  0
LAYER
  5
3F
330
2
100
AcDbSymbolTableRecord
100
AcDbLayerTableRecord
  2
6
 70
     0
 62
     6
  6
CONTINUOUS
  0
LAYER
  5
40
330
2
100
AcDbSymbolTableRecord
100
AcDbLayerTableRecord
  2
7
 70
     0
 62
     7
  6
CONTINUOUS
  0
LAYER
  5
41
330
2
100
AcDbSymbolTableRecord
100
AcDbLayerTableRecord
  2
8
 70
     0
 62
     8
  6
CONTINUOUS
  0
LAYER
  5
42
330
2
100
AcDbSymbolTableRecord
100
AcDbLayerTableRecord
  2
9
 70
     0
 62
     9
  6
CONTINUOUS
  0
LAYER
  5
43
330
2
100
AcDbSymbolTableRecord
100
AcDbLayerTableRecord
  2
10
 70
     0
 62
    10
  6
CONTINUOUS
  0
LAYER
  5
44
330
2
100
AcDbSymbolTableRecord
100
AcDbLayerTableRecord
  2
11
 70
     0
 62
    11
  6
CONTINUOUS
  0
LAYER
  5
45
330
2
100
AcDbSymbolTableRecord
100
AcDbLayerTableRecord
  2
12
 70
     0
 62
    12
  6
CONTINUOUS
  0
LAYER
  5
46
330
2
100
AcDbSymbolTableRecord
100
AcDbLayerTableRecord
  2
13
 70
     0
 62
    13
  6
CONTINUOUS
  0
LAYER
  5
47
330
2
100
AcDbSymbolTableRecord
100
AcDbLayerTableRecord
  2
14
 70
     0
 62
    14
  6
CONTINUOUS
  0
LAYER
  5
48
330
2
100
AcDbSymbolTableRecord
100
AcDbLayerTableRecord
  2
15
 70
     0
 62
    15
  6
CONTINUOUS
  0
LAYER
  5
49
330
2
100
AcDbSymbolTableRecord
100
AcDbLayerTableRecord
  2
16
 70
     0
 62
    16
  6
CONTINUOUS
  0
LAYER
  5
4A
330
2
100
AcDbSymbolTableRecord
100
AcDbLayerTableRecord
  2
17
 70
     0
 62
    17
  6
CONTINUOUS
  0
LAYER
  5
4B
330
2
100
AcDbSymbolTableRecord
100
AcDbLayerTableRecord
  2
18
 70
     0
 62
    18
  6
CONTINUOUS
  0
LAYER
  5
4C
330
2
100
AcDbSymbolTableRecord
100
AcDbLayerTableRecord
  2
19
 70
     0
 62
    19
  6
CONTINUOUS
  0
LAYER
  5
4D
330
2
100
AcDbSymbolTableRecord
100
AcDbLayerTableRecord
  2
20
 70
     0
 62
    20
  6
CONTINUOUS
  0
LAYER
  5
4E
330
2
100
AcDbSymbolTableRecord
100
AcDbLayerTableRecord
  2
21
 70
     0
 62
    21
  6
CONTINUOUS
  0
LAYER
  5
4F
330
2
100
AcDbSymbolTableRecord
100
AcDbLayerTableRecord
  2
22
 70
     0
 62
    22
  6
CONTINUOUS
  0
LAYER
  5
50
330
2
100
AcDbSymbolTableRecord
100
AcDbLayerTableRecord
  2
23
 70
     0
 62
    23
  6
CONTINUOUS
  0
LAYER
  5
51
330
2
100
AcDbSymbolTableRecord
100
AcDbLayerTableRecord
  2
24
 70
     0
 62
    24
  6
CONTINUOUS
  0
LAYER
  5
52
330
2
100
AcDbSymbolTableRecord
100
AcDbLayerTableRecord
  2
25
 70
     0
 62
    25
  6
CONTINUOUS
  0
LAYER
  5
53
330
2
100
AcDbSymbolTableRecord
100
AcDbLayerTableRecord
  2
26
 70
     0
 62
    26
  6
CONTINUOUS
  0
LAYER
  5
54
330
2
100
AcDbSymbolTableRecord
100
AcDbLayerTableRecord
  2
27
 70
     0
 62
    27
  6
CONTINUOUS
  0
LAYER
  5
55
330
2
100
AcDbSymbolTableRecord
100
AcDbLayerTableRecord
  2
28
 70
     0
 62
    28
  6
CONTINUOUS
  0
LAYER
  5
56
330
2
100
AcDbSymbolTableRecord
100
AcDbLayerTableRecord
  2
29
 70
     0
 62
    29
  6
CONTINUOUS
  0
LAYER
  5
57
330
2
100
AcDbSymbolTableRecord
100
AcDbLayerTableRecord
  2
30
 70
     0
 62
    30
  6
CONTINUOUS
  0
LAYER
  5
58
330
2
100
AcDbSymbolTableRecord
100
AcDbLayerTableRecord
  2
31
 70
     0
 62
    31
  6
CONTINUOUS
  0
LAYER
  5
59
330
2
100
AcDbSymbolTableRecord
100
AcDbLayerTableRecord
  2
32
 70
     0
 62
    32
  6
CONTINUOUS
  0
LAYER
  5
5A
330
2
100
AcDbSymbolTableRecord
100
AcDbLayerTableRecord
  2
33
 70
     0
 62
    33
  6
CONTINUOUS
  0
LAYER
  5
5B
330
2
100
AcDbSymbolTableRecord
100
AcDbLayerTableRecord
  2
34
 70
     0
 62
    34
  6
CONTINUOUS
  0
LAYER
  5
5C
330
2
100
AcDbSymbolTableRecord
100
AcDbLayerTableRecord
  2
35
 70
     0
 62
    35
  6
CONTINUOUS
  0
LAYER
  5
5D
330
2
100
AcDbSymbolTableRecord
100
AcDbLayerTableRecord
  2
36
 70
     0
 62
    36
  6
CONTINUOUS
  0
LAYER
  5
5E
330
2
100
AcDbSymbolTableRecord
100
AcDbLayerTableRecord
  2
37
 70
     0
 62
    37
  6
CONTINUOUS
  0
LAYER
  5
5F
330
2
100
AcDbSymbolTableRecord
100
AcDbLayerTableRecord
  2
38
 70
     0
 62
    38
  6
CONTINUOUS
  0
LAYER
  5
60
330
2
100
AcDbSymbolTableRecord
100
AcDbLayerTableRecord
  2
39
 70
     0
 62
    39
  6
CONTINUOUS
  0
LAYER
  5
61
330
2
100
AcDbSymbolTableRecord
100
AcDbLayerTableRecord
  2
40
 70
     0
 62
    40
  6
CONTINUOUS
  0
LAYER
  5
62
330
2
100
AcDbSymbolTableRecord
100
AcDbLayerTableRecord
  2
41
 70
     0
 62
    41
  6
CONTINUOUS
  0
LAYER
  5
63
330
2
100
AcDbSymbolTableRecord
100
AcDbLayerTableRecord
  2
42
 70
     0
 62
    42
  6
CONTINUOUS
  0
LAYER
  5
64
330
2
100
AcDbSymbolTableRecord
100
AcDbLayerTableRecord
  2
43
 70
     0
 62
    43
  6
CONTINUOUS
  0
LAYER
  5
65
330
2
100
AcDbSymbolTableRecord
100
AcDbLayerTableRecord
  2
44
 70
     0
 62
    44
  6
CONTINUOUS
  0
LAYER
  5
66
330
2
100
AcDbSymbolTableRecord
100
AcDbLayerTableRecord
  2
45
 70
     0
 62
    45
  6
CONTINUOUS
  0
LAYER
  5
67
330
2
100
AcDbSymbolTableRecord
100
AcDbLayerTableRecord
  2
46
 70
     0
 62
    46
  6
CONTINUOUS
  0
LAYER
  5
68
330
2
100
AcDbSymbolTableRecord
100
AcDbLayerTableRecord
  2
47
 70
     0
 62
    47
  6
CONTINUOUS
  0
LAYER
  5
69
330
2
100
AcDbSymbolTableRecord
100
AcDbLayerTableRecord
  2
48
 70
     0
 62
    48
  6
CONTINUOUS
  0
LAYER
  5
6A
330
2
100
AcDbSymbolTableRecord
100
AcDbLayerTableRecord
  2
49
 70
     0
 62
    49
  6
CONTINUOUS
  0
LAYER
  5
6B
330
2
100
AcDbSymbolTableRecord
100
AcDbLayerTableRecord
  2
50
 70
     0
 62
    50
  6
CONTINUOUS
  0
LAYER
  5
6C
330
2
100
AcDbSymbolTableRecord
100
AcDbLayerTableRecord
  2
51
 70
     0
 62
    51
  6
CONTINUOUS
  0
LAYER
  5
6D
330
2
100
AcDbSymbolTableRecord
100
AcDbLayerTableRecord
  2
52
 70
     0
 62
    52
  6
CONTINUOUS
  0
LAYER
  5
6E
330
2
100
AcDbSymbolTableRecord
100
AcDbLayerTableRecord
  2
53
 70
     0
 62
    53
  6
CONTINUOUS
  0
LAYER
  5
6F
330
2
100
AcDbSymbolTableRecord
100
AcDbLayerTableRecord
  2
54
 70
     0
 62
    54
  6
CONTINUOUS
  0
LAYER
  5
70
330
2
100
AcDbSymbolTableRecord
100
AcDbLayerTableRecord
  2
55
 70
     0
 62
    55
  6
CONTINUOUS
  0
LAYER
  5
71
330
2
100
AcDbSymbolTableRecord
100
AcDbLayerTableRecord
  2
56
 70
     0
 62
    56
  6
CONTINUOUS
  0
LAYER
  5
72
330
2
100
AcDbSymbolTableRecord
100
AcDbLayerTableRecord
  2
57
 70
     0
 62
    57
  6
CONTINUOUS
  0
LAYER
  5
73
330
2
100
AcDbSymbolTableRecord
100
AcDbLayerTableRecord
  2
58
 70
     0
 62
    58
  6
CONTINUOUS
  0
LAYER
  5
74
330
2
100
AcDbSymbolTableRecord
100
AcDbLayerTableRecord
  2
59
 70
     0
 62
    59
  6
CONTINUOUS
  0
LAYER
  5
75
330
2
100
AcDbSymbolTableRecord
100
AcDbLayerTableRecord
  2
60
 70
     0
 62
    60
  6
CONTINUOUS
  0
LAYER
  5
76
330
2
100
AcDbSymbolTableRecord
100
AcDbLayerTableRecord
  2
61
 70
     0
 62
    61
  6
CONTINUOUS
  0
LAYER
  5
77
330
2
100
AcDbSymbolTableRecord
100
AcDbLayerTableRecord
  2
62
 70
     0
 62
    62
  6
CONTINUOUS
  0
LAYER
  5
78
330
2
100
AcDbSymbolTableRecord
100
AcDbLayerTableRecord
  2
63
 70
     0
 62
    63
  6
CONTINUOUS
  0
LAYER
  5
79
330
2
100
AcDbSymbolTableRecord
100
AcDbLayerTableRecord
  2
64
 70
     0
 62
    64
  6
CONTINUOUS
  0
LAYER
  5
7A
330
2
100
AcDbSymbolTableRecord
100
AcDbLayerTableRecord
  2
65
 70
     0
 62
    65
  6
CONTINUOUS
  0
LAYER
  5
7B
330
2
100
AcDbSymbolTableRecord
100
AcDbLayerTableRecord
  2
66
 70
     0
 62
    66
  6
CONTINUOUS
  0
LAYER
  5
7C
330
2
100
AcDbSymbolTableRecord
100
AcDbLayerTableRecord
  2
67
 70
     0
 62
    67
  6
CONTINUOUS
  0
LAYER
  5
7D
330
2
100
AcDbSymbolTableRecord
100
AcDbLayerTableRecord
  2
68
 70
     0
 62
    68
  6
CONTINUOUS
  0
LAYER
  5
7E
330
2
100
AcDbSymbolTableRecord
100
AcDbLayerTableRecord
  2
69
 70
     0
 62
    69
  6
CONTINUOUS
  0
LAYER
  5
7F
330
2
100
AcDbSymbolTableRecord
100
AcDbLayerTableRecord
  2
70
 70
     0
 62
    70
  6
CONTINUOUS
  0
LAYER
  5
80
330
2
100
AcDbSymbolTableRecord
100
AcDbLayerTableRecord
  2
71
 70
     0
 62
    71
  6
CONTINUOUS
  0
LAYER
  5
81
330
2
100
AcDbSymbolTableRecord
100
AcDbLayerTableRecord
  2
72
 70
     0
 62
    72
  6
CONTINUOUS
  0
LAYER
  5
82
330
2
100
AcDbSymbolTableRecord
100
AcDbLayerTableRecord
  2
73
 70
     0
 62
    73
  6
CONTINUOUS
  0
LAYER
  5
83
330
2
100
AcDbSymbolTableRecord
100
AcDbLayerTableRecord
  2
74
 70
     0
 62
    74
  6
CONTINUOUS
  0
LAYER
  5
84
330
2
100
AcDbSymbolTableRecord
100
AcDbLayerTableRecord
  2
75
 70
     0
 62
    75
  6
CONTINUOUS
  0
LAYER
  5
85
330
2
100
AcDbSymbolTableRecord
100
AcDbLayerTableRecord
  2
76
 70
     0
 62
    76
  6
CONTINUOUS
  0
LAYER
  5
86
330
2
100
AcDbSymbolTableRecord
100
AcDbLayerTableRecord
  2
77
 70
     0
 62
    77
  6
CONTINUOUS
  0
LAYER
  5
87
330
2
100
AcDbSymbolTableRecord
100
AcDbLayerTableRecord
  2
78
 70
     0
 62
    78
  6
CONTINUOUS
  0
LAYER
  5
88
330
2
100
AcDbSymbolTableRecord
100
AcDbLayerTableRecord
  2
79
 70
     0
 62
    79
  6
CONTINUOUS
  0
LAYER
  5
89
330
2
100
AcDbSymbolTableRecord
100
AcDbLayerTableRecord
  2
80
 70
     0
 62
    80
  6
CONTINUOUS
  0
LAYER
  5
8A
330
2
100
AcDbSymbolTableRecord
100
AcDbLayerTableRecord
  2
81
 70
     0
 62
    81
  6
CONTINUOUS
  0
LAYER
  5
8B
330
2
100
AcDbSymbolTableRecord
100
AcDbLayerTableRecord
  2
82
 70
     0
 62
    82
  6
CONTINUOUS
  0
LAYER
  5
8C
330
2
100
AcDbSymbolTableRecord
100
AcDbLayerTableRecord
  2
83
 70
     0
 62
    83
  6
CONTINUOUS
  0
LAYER
  5
8D
330
2
100
AcDbSymbolTableRecord
100
AcDbLayerTableRecord
  2
84
 70
     0
 62
    84
  6
CONTINUOUS
  0
LAYER
  5
8E
330
2
100
AcDbSymbolTableRecord
100
AcDbLayerTableRecord
  2
85
 70
     0
 62
    85
  6
CONTINUOUS
  0
LAYER
  5
8F
330
2
100
AcDbSymbolTableRecord
100
AcDbLayerTableRecord
  2
86
 70
     0
 62
    86
  6
CONTINUOUS
  0
LAYER
  5
90
330
2
100
AcDbSymbolTableRecord
100
AcDbLayerTableRecord
  2
87
 70
     0
 62
    87
  6
CONTINUOUS
  0
LAYER
  5
91
330
2
100
AcDbSymbolTableRecord
100
AcDbLayerTableRecord
  2
88
 70
     0
 62
    88
  6
CONTINUOUS
  0
LAYER
  5
92
330
2
100
AcDbSymbolTableRecord
100
AcDbLayerTableRecord
  2
89
 70
     0
 62
    89
  6
CONTINUOUS
  0
LAYER
  5
93
330
2
100
AcDbSymbolTableRecord
100
AcDbLayerTableRecord
  2
90
 70
     0
 62
    90
  6
CONTINUOUS
  0
LAYER
  5
94
330
2
100
AcDbSymbolTableRecord
100
AcDbLayerTableRecord
  2
91
 70
     0
 62
    91
  6
CONTINUOUS
  0
LAYER
  5
95
330
2
100
AcDbSymbolTableRecord
100
AcDbLayerTableRecord
  2
92
 70
     0
 62
    92
  6
CONTINUOUS
  0
LAYER
  5
96
330
2
100
AcDbSymbolTableRecord
100
AcDbLayerTableRecord
  2
93
 70
     0
 62
    93
  6
CONTINUOUS
  0
LAYER
  5
97
330
2
100
AcDbSymbolTableRecord
100
AcDbLayerTableRecord
  2
94
 70
     0
 62
    94
  6
CONTINUOUS
  0
LAYER
  5
98
330
2
100
AcDbSymbolTableRecord
100
AcDbLayerTableRecord
  2
95
 70
     0
 62
    95
  6
CONTINUOUS
  0
LAYER
  5
99
330
2
100
AcDbSymbolTableRecord
100
AcDbLayerTableRecord
  2
96
 70
     0
 62
    96
  6
CONTINUOUS
  0
LAYER
  5
9A
330
2
100
AcDbSymbolTableRecord
100
AcDbLayerTableRecord
  2
97
 70
     0
 62
    97
  6
CONTINUOUS
  0
LAYER
  5
9B
330
2
100
AcDbSymbolTableRecord
100
AcDbLayerTableRecord
  2
98
 70
     0
 62
    98
  6
CONTINUOUS
  0
LAYER
  5
9C
330
2
100
AcDbSymbolTableRecord
100
AcDbLayerTableRecord
  2
99
 70
     0
 62
    99
  6
CONTINUOUS
  0
LAYER
  5
9D
330
2
100
AcDbSymbolTableRecord
100
AcDbLayerTableRecord
  2
100
 70
     0
 62
   100
  6
CONTINUOUS
  0
LAYER
  5
9E
330
2
100
AcDbSymbolTableRecord
100
AcDbLayerTableRecord
  2
101
 70
     0
 62
   101
  6
CONTINUOUS
  0
LAYER
  5
9F
330
2
100
AcDbSymbolTableRecord
100
AcDbLayerTableRecord
  2
102
 70
     0
 62
   102
  6
CONTINUOUS
  0
LAYER
  5
A0
330
2
100
AcDbSymbolTableRecord
100
AcDbLayerTableRecord
  2
103
 70
     0
 62
   103
  6
CONTINUOUS
  0
LAYER
  5
A1
330
2
100
AcDbSymbolTableRecord
100
AcDbLayerTableRecord
  2
104
 70
     0
 62
   104
  6
CONTINUOUS
  0
LAYER
  5
A2
330
2
100
AcDbSymbolTableRecord
100
AcDbLayerTableRecord
  2
105
 70
     0
 62
   105
  6
CONTINUOUS
  0
LAYER
  5
A3
330
2
100
AcDbSymbolTableRecord
100
AcDbLayerTableRecord
  2
106
 70
     0
 62
   106
  6
CONTINUOUS
  0
LAYER
  5
A4
330
2
100
AcDbSymbolTableRecord
100
AcDbLayerTableRecord
  2
107
 70
     0
 62
   107
  6
CONTINUOUS
  0
LAYER
  5
A5
330
2
100
AcDbSymbolTableRecord
100
AcDbLayerTableRecord
  2
108
 70
     0
 62
   108
  6
CONTINUOUS
  0
LAYER
  5
A6
330
2
100
AcDbSymbolTableRecord
100
AcDbLayerTableRecord
  2
109
 70
     0
 62
   109
  6
CONTINUOUS
  0
LAYER
  5
A7
330
2
100
AcDbSymbolTableRecord
100
AcDbLayerTableRecord
  2
110
 70
     0
 62
   110
  6
CONTINUOUS
  0
LAYER
  5
A8
330
2
100
AcDbSymbolTableRecord
100
AcDbLayerTableRecord
  2
111
 70
     0
 62
   111
  6
CONTINUOUS
  0
LAYER
  5
A9
330
2
100
AcDbSymbolTableRecord
100
AcDbLayerTableRecord
  2
112
 70
     0
 62
   112
  6
CONTINUOUS
  0
LAYER
  5
AA
330
2
100
AcDbSymbolTableRecord
100
AcDbLayerTableRecord
  2
113
 70
     0
 62
   113
  6
CONTINUOUS
  0
LAYER
  5
AB
330
2
100
AcDbSymbolTableRecord
100
AcDbLayerTableRecord
  2
114
 70
     0
 62
   114
  6
CONTINUOUS
  0
LAYER
  5
AC
330
2
100
AcDbSymbolTableRecord
100
AcDbLayerTableRecord
  2
115
 70
     0
 62
   115
  6
CONTINUOUS
  0
LAYER
  5
AD
330
2
100
AcDbSymbolTableRecord
100
AcDbLayerTableRecord
  2
116
 70
     0
 62
   116
  6
CONTINUOUS
  0
LAYER
  5
AE
330
2
100
AcDbSymbolTableRecord
100
AcDbLayerTableRecord
  2
117
 70
     0
 62
   117
  6
CONTINUOUS
  0
LAYER
  5
AF
330
2
100
AcDbSymbolTableRecord
100
AcDbLayerTableRecord
  2
118
 70
     0
 62
   118
  6
CONTINUOUS
  0
LAYER
  5
B0
330
2
100
AcDbSymbolTableRecord
100
AcDbLayerTableRecord
  2
119
 70
     0
 62
   119
  6
CONTINUOUS
  0
LAYER
  5
B1
330
2
100
AcDbSymbolTableRecord
100
AcDbLayerTableRecord
  2
120
 70
     0
 62
   120
  6
CONTINUOUS
  0
LAYER
  5
B2
330
2
100
AcDbSymbolTableRecord
100
AcDbLayerTableRecord
  2
121
 70
     0
 62
   121
  6
CONTINUOUS
  0
LAYER
  5
B3
330
2
100
AcDbSymbolTableRecord
100
AcDbLayerTableRecord
  2
122
 70
     0
 62
   122
  6
CONTINUOUS
  0
LAYER
  5
B4
330
2
100
AcDbSymbolTableRecord
100
AcDbLayerTableRecord
  2
123
 70
     0
 62
   123
  6
CONTINUOUS
  0
LAYER
  5
B5
330
2
100
AcDbSymbolTableRecord
100
AcDbLayerTableRecord
  2
124
 70
     0
 62
   124
  6
CONTINUOUS
  0
LAYER
  5
B6
330
2
100
AcDbSymbolTableRecord
100
AcDbLayerTableRecord
  2
125
 70
     0
 62
   125
  6
CONTINUOUS
  0
LAYER
  5
B7
330
2
100
AcDbSymbolTableRecord
100
AcDbLayerTableRecord
  2
126
 70
     0
 62
   126
  6
CONTINUOUS
  0
LAYER
  5
B8
330
2
100
AcDbSymbolTableRecord
100
AcDbLayerTableRecord
  2
127
 70
     0
 62
   127
  6
CONTINUOUS
  0
LAYER
  5
B9
330
2
100
AcDbSymbolTableRecord
100
AcDbLayerTableRecord
  2
128
 70
     0
 62
   128
  6
CONTINUOUS
  0
LAYER
  5
BA
330
2
100
AcDbSymbolTableRecord
100
AcDbLayerTableRecord
  2
129
 70
     0
 62
   129
  6
CONTINUOUS
  0
LAYER
  5
BB
330
2
100
AcDbSymbolTableRecord
100
AcDbLayerTableRecord
  2
130
 70
     0
 62
   130
  6
CONTINUOUS
  0
LAYER
  5
BC
330
2
100
AcDbSymbolTableRecord
100
AcDbLayerTableRecord
  2
131
 70
     0
 62
   131
  6
CONTINUOUS
  0
LAYER
  5
BD
330
2
100
AcDbSymbolTableRecord
100
AcDbLayerTableRecord
  2
132
 70
     0
 62
   132
  6
CONTINUOUS
  0
LAYER
  5
BE
330
2
100
AcDbSymbolTableRecord
100
AcDbLayerTableRecord
  2
133
 70
     0
 62
   133
  6
CONTINUOUS
  0
LAYER
  5
BF
330
2
100
AcDbSymbolTableRecord
100
AcDbLayerTableRecord
  2
134
 70
     0
 62
   134
  6
CONTINUOUS
  0
LAYER
  5
C0
330
2
100
AcDbSymbolTableRecord
100
AcDbLayerTableRecord
  2
135
 70
     0
 62
   135
  6
CONTINUOUS
  0
LAYER
  5
C1
330
2
100
AcDbSymbolTableRecord
100
AcDbLayerTableRecord
  2
136
 70
     0
 62
   136
  6
CONTINUOUS
  0
LAYER
  5
C2
330
2
100
AcDbSymbolTableRecord
100
AcDbLayerTableRecord
  2
137
 70
     0
 62
   137
  6
CONTINUOUS
  0
LAYER
  5
C3
330
2
100
AcDbSymbolTableRecord
100
AcDbLayerTableRecord
  2
138
 70
     0
 62
   138
  6
CONTINUOUS
  0
LAYER
  5
C4
330
2
100
AcDbSymbolTableRecord
100
AcDbLayerTableRecord
  2
139
 70
     0
 62
   139
  6
CONTINUOUS
  0
LAYER
  5
C5
330
2
100
AcDbSymbolTableRecord
100
AcDbLayerTableRecord
  2
140
 70
     0
 62
   140
  6
CONTINUOUS
  0
LAYER
  5
C6
330
2
100
AcDbSymbolTableRecord
100
AcDbLayerTableRecord
  2
141
 70
     0
 62
   141
  6
CONTINUOUS
  0
LAYER
  5
C7
330
2
100
AcDbSymbolTableRecord
100
AcDbLayerTableRecord
  2
142
 70
     0
 62
   142
  6
CONTINUOUS
  0
LAYER
  5
C8
330
2
100
AcDbSymbolTableRecord
100
AcDbLayerTableRecord
  2
143
 70
     0
 62
   143
  6
CONTINUOUS
  0
LAYER
  5
C9
330
2
100
AcDbSymbolTableRecord
100
AcDbLayerTableRecord
  2
144
 70
     0
 62
   144
  6
CONTINUOUS
  0
LAYER
  5
CA
330
2
100
AcDbSymbolTableRecord
100
AcDbLayerTableRecord
  2
145
 70
     0
 62
   145
  6
CONTINUOUS
  0
LAYER
  5
CB
330
2
100
AcDbSymbolTableRecord
100
AcDbLayerTableRecord
  2
146
 70
     0
 62
   146
  6
CONTINUOUS
  0
LAYER
  5
CC
330
2
100
AcDbSymbolTableRecord
100
AcDbLayerTableRecord
  2
147
 70
     0
 62
   147
  6
CONTINUOUS
  0
LAYER
  5
CD
330
2
100
AcDbSymbolTableRecord
100
AcDbLayerTableRecord
  2
148
 70
     0
 62
   148
  6
CONTINUOUS
  0
LAYER
  5
CE
330
2
100
AcDbSymbolTableRecord
100
AcDbLayerTableRecord
  2
149
 70
     0
 62
   149
  6
CONTINUOUS
  0
LAYER
  5
CF
330
2
100
AcDbSymbolTableRecord
100
AcDbLayerTableRecord
  2
150
 70
     0
 62
   150
  6
CONTINUOUS
  0
LAYER
  5
D0
330
2
100
AcDbSymbolTableRecord
100
AcDbLayerTableRecord
  2
151
 70
     0
 62
   151
  6
CONTINUOUS
  0
LAYER
  5
D1
330
2
100
AcDbSymbolTableRecord
100
AcDbLayerTableRecord
  2
152
 70
     0
 62
   152
  6
CONTINUOUS
  0
LAYER
  5
D2
330
2
100
AcDbSymbolTableRecord
100
AcDbLayerTableRecord
  2
153
 70
     0
 62
   153
  6
CONTINUOUS
  0
LAYER
  5
D3
330
2
100
AcDbSymbolTableRecord
100
AcDbLayerTableRecord
  2
154
 70
     0
 62
   154
  6
CONTINUOUS
  0
LAYER
  5
D4
330
2
100
AcDbSymbolTableRecord
100
AcDbLayerTableRecord
  2
155
 70
     0
 62
   155
  6
CONTINUOUS
  0
LAYER
  5
D5
330
2
100
AcDbSymbolTableRecord
100
AcDbLayerTableRecord
  2
156
 70
     0
 62
   156
  6
CONTINUOUS
  0
LAYER
  5
D6
330
2
100
AcDbSymbolTableRecord
100
AcDbLayerTableRecord
  2
157
 70
     0
 62
   157
  6
CONTINUOUS
  0
LAYER
  5
D7
330
2
100
AcDbSymbolTableRecord
100
AcDbLayerTableRecord
  2
158
 70
     0
 62
   158
  6
CONTINUOUS
  0
LAYER
  5
D8
330
2
100
AcDbSymbolTableRecord
100
AcDbLayerTableRecord
  2
159
 70
     0
 62
   159
  6
CONTINUOUS
  0
LAYER
  5
D9
330
2
100
AcDbSymbolTableRecord
100
AcDbLayerTableRecord
  2
160
 70
     0
 62
   160
  6
CONTINUOUS
  0
LAYER
  5
DA
330
2
100
AcDbSymbolTableRecord
100
AcDbLayerTableRecord
  2
161
 70
     0
 62
   161
  6
CONTINUOUS
  0
LAYER
  5
DB
330
2
100
AcDbSymbolTableRecord
100
AcDbLayerTableRecord
  2
162
 70
     0
 62
   162
  6
CONTINUOUS
  0
LAYER
  5
DC
330
2
100
AcDbSymbolTableRecord
100
AcDbLayerTableRecord
  2
163
 70
     0
 62
   163
  6
CONTINUOUS
  0
LAYER
  5
DD
330
2
100
AcDbSymbolTableRecord
100
AcDbLayerTableRecord
  2
164
 70
     0
 62
   164
  6
CONTINUOUS
  0
LAYER
  5
DE
330
2
100
AcDbSymbolTableRecord
100
AcDbLayerTableRecord
  2
165
 70
     0
 62
   165
  6
CONTINUOUS
  0
LAYER
  5
DF
330
2
100
AcDbSymbolTableRecord
100
AcDbLayerTableRecord
  2
166
 70
     0
 62
   166
  6
CONTINUOUS
  0
LAYER
  5
E0
330
2
100
AcDbSymbolTableRecord
100
AcDbLayerTableRecord
  2
167
 70
     0
 62
   167
  6
CONTINUOUS
  0
LAYER
  5
E1
330
2
100
AcDbSymbolTableRecord
100
AcDbLayerTableRecord
  2
168
 70
     0
 62
   168
  6
CONTINUOUS
  0
LAYER
  5
E2
330
2
100
AcDbSymbolTableRecord
100
AcDbLayerTableRecord
  2
169
 70
     0
 62
   169
  6
CONTINUOUS
  0
LAYER
  5
E3
330
2
100
AcDbSymbolTableRecord
100
AcDbLayerTableRecord
  2
170
 70
     0
 62
   170
  6
CONTINUOUS
  0
LAYER
  5
E4
330
2
100
AcDbSymbolTableRecord
100
AcDbLayerTableRecord
  2
171
 70
     0
 62
   171
  6
CONTINUOUS
  0
LAYER
  5
E5
330
2
100
AcDbSymbolTableRecord
100
AcDbLayerTableRecord
  2
172
 70
     0
 62
   172
  6
CONTINUOUS
  0
LAYER
  5
E6
330
2
100
AcDbSymbolTableRecord
100
AcDbLayerTableRecord
  2
173
 70
     0
 62
   173
  6
CONTINUOUS
  0
LAYER
  5
E7
330
2
100
AcDbSymbolTableRecord
100
AcDbLayerTableRecord
  2
174
 70
     0
 62
   174
  6
CONTINUOUS
  0
LAYER
  5
E8
330
2
100
AcDbSymbolTableRecord
100
AcDbLayerTableRecord
  2
175
 70
     0
 62
   175
  6
CONTINUOUS
  0
LAYER
  5
E9
330
2
100
AcDbSymbolTableRecord
100
AcDbLayerTableRecord
  2
176
 70
     0
 62
   176
  6
CONTINUOUS
  0
LAYER
  5
EA
330
2
100
AcDbSymbolTableRecord
100
AcDbLayerTableRecord
  2
177
 70
     0
 62
   177
  6
CONTINUOUS
  0
LAYER
  5
EB
330
2
100
AcDbSymbolTableRecord
100
AcDbLayerTableRecord
  2
178
 70
     0
 62
   178
  6
CONTINUOUS
  0
LAYER
  5
EC
330
2
100
AcDbSymbolTableRecord
100
AcDbLayerTableRecord
  2
179
 70
     0
 62
   179
  6
CONTINUOUS
  0
LAYER
  5
ED
330
2
100
AcDbSymbolTableRecord
100
AcDbLayerTableRecord
  2
180
 70
     0
 62
   180
  6
CONTINUOUS
  0
LAYER
  5
EE
330
2
100
AcDbSymbolTableRecord
100
AcDbLayerTableRecord
  2
181
 70
     0
 62
   181
  6
CONTINUOUS
  0
LAYER
  5
EF
330
2
100
AcDbSymbolTableRecord
100
AcDbLayerTableRecord
  2
182
 70
     0
 62
   182
  6
CONTINUOUS
  0
LAYER
  5
F0
330
2
100
AcDbSymbolTableRecord
100
AcDbLayerTableRecord
  2
183
 70
     0
 62
   183
  6
CONTINUOUS
  0
LAYER
  5
F1
330
2
100
AcDbSymbolTableRecord
100
AcDbLayerTableRecord
  2
184
 70
     0
 62
   184
  6
CONTINUOUS
  0
LAYER
  5
F2
330
2
100
AcDbSymbolTableRecord
100
AcDbLayerTableRecord
  2
185
 70
     0
 62
   185
  6
CONTINUOUS
  0
LAYER
  5
F3
330
2
100
AcDbSymbolTableRecord
100
AcDbLayerTableRecord
  2
186
 70
     0
 62
   186
  6
CONTINUOUS
  0
LAYER
  5
F4
330
2
100
AcDbSymbolTableRecord
100
AcDbLayerTableRecord
  2
187
 70
     0
 62
   187
  6
CONTINUOUS
  0
LAYER
  5
F5
330
2
100
AcDbSymbolTableRecord
100
AcDbLayerTableRecord
  2
188
 70
     0
 62
   188
  6
CONTINUOUS
  0
LAYER
  5
F6
330
2
100
AcDbSymbolTableRecord
100
AcDbLayerTableRecord
  2
189
 70
     0
 62
   189
  6
CONTINUOUS
  0
LAYER
  5
F7
330
2
100
AcDbSymbolTableRecord
100
AcDbLayerTableRecord
  2
190
 70
     0
 62
   190
  6
CONTINUOUS
  0
LAYER
  5
F8
330
2
100
AcDbSymbolTableRecord
100
AcDbLayerTableRecord
  2
191
 70
     0
 62
   191
  6
CONTINUOUS
  0
LAYER
  5
F9
330
2
100
AcDbSymbolTableRecord
100
AcDbLayerTableRecord
  2
192
 70
     0
 62
   192
  6
CONTINUOUS
  0
LAYER
  5
FA
330
2
100
AcDbSymbolTableRecord
100
AcDbLayerTableRecord
  2
193
 70
     0
 62
   193
  6
CONTINUOUS
  0
LAYER
  5
FB
330
2
100
AcDbSymbolTableRecord
100
AcDbLayerTableRecord
  2
194
 70
     0
 62
   194
  6
CONTINUOUS
  0
LAYER
  5
FC
330
2
100
AcDbSymbolTableRecord
100
AcDbLayerTableRecord
  2
195
 70
     0
 62
   195
  6
CONTINUOUS
  0
LAYER
  5
FD
330
2
100
AcDbSymbolTableRecord
100
AcDbLayerTableRecord
  2
196
 70
     0
 62
   196
  6
CONTINUOUS
  0
LAYER
  5
FE
330
2
100
AcDbSymbolTableRecord
100
AcDbLayerTableRecord
  2
197
 70
     0
 62
   197
  6
CONTINUOUS
  0
LAYER
  5
FF
330
2
100
AcDbSymbolTableRecord
100
AcDbLayerTableRecord
  2
198
 70
     0
 62
   198
  6
CONTINUOUS
  0
LAYER
  5
100
330
2
100
AcDbSymbolTableRecord
100
AcDbLayerTableRecord
  2
199
 70
     0
 62
   199
  6
CONTINUOUS
  0
LAYER
  5
101
330
2
100
AcDbSymbolTableRecord
100
AcDbLayerTableRecord
  2
200
 70
     0
 62
   200
  6
CONTINUOUS
  0
LAYER
  5
102
330
2
100
AcDbSymbolTableRecord
100
AcDbLayerTableRecord
  2
201
 70
     0
 62
   201
  6
CONTINUOUS
  0
LAYER
  5
103
330
2
100
AcDbSymbolTableRecord
100
AcDbLayerTableRecord
  2
202
 70
     0
 62
   202
  6
CONTINUOUS
  0
LAYER
  5
104
330
2
100
AcDbSymbolTableRecord
100
AcDbLayerTableRecord
  2
203
 70
     0
 62
   203
  6
CONTINUOUS
  0
LAYER
  5
105
330
2
100
AcDbSymbolTableRecord
100
AcDbLayerTableRecord
  2
204
 70
     0
 62
   204
  6
CONTINUOUS
  0
LAYER
  5
106
330
2
100
AcDbSymbolTableRecord
100
AcDbLayerTableRecord
  2
205
 70
     0
 62
   205
  6
CONTINUOUS
  0
LAYER
  5
107
330
2
100
AcDbSymbolTableRecord
100
AcDbLayerTableRecord
  2
206
 70
     0
 62
   206
  6
CONTINUOUS
  0
LAYER
  5
108
330
2
100
AcDbSymbolTableRecord
100
AcDbLayerTableRecord
  2
207
 70
     0
 62
   207
  6
CONTINUOUS
  0
LAYER
  5
109
330
2
100
AcDbSymbolTableRecord
100
AcDbLayerTableRecord
  2
208
 70
     0
 62
   208
  6
CONTINUOUS
  0
LAYER
  5
10A
330
2
100
AcDbSymbolTableRecord
100
AcDbLayerTableRecord
  2
209
 70
     0
 62
   209
  6
CONTINUOUS
  0
LAYER
  5
10B
330
2
100
AcDbSymbolTableRecord
100
AcDbLayerTableRecord
  2
210
 70
     0
 62
   210
  6
CONTINUOUS
  0
LAYER
  5
10C
330
2
100
AcDbSymbolTableRecord
100
AcDbLayerTableRecord
  2
211
 70
     0
 62
   211
  6
CONTINUOUS
  0
LAYER
  5
10D
330
2
100
AcDbSymbolTableRecord
100
AcDbLayerTableRecord
  2
212
 70
     0
 62
   212
  6
CONTINUOUS
  0
LAYER
  5
10E
330
2
100
AcDbSymbolTableRecord
100
AcDbLayerTableRecord
  2
213
 70
     0
 62
   213
  6
CONTINUOUS
  0
LAYER
  5
10F
330
2
100
AcDbSymbolTableRecord
100
AcDbLayerTableRecord
  2
214
 70
     0
 62
   214
  6
CONTINUOUS
  0
LAYER
  5
110
330
2
100
AcDbSymbolTableRecord
100
AcDbLayerTableRecord
  2
215
 70
     0
 62
   215
  6
CONTINUOUS
  0
LAYER
  5
111
330
2
100
AcDbSymbolTableRecord
100
AcDbLayerTableRecord
  2
216
 70
     0
 62
   216
  6
CONTINUOUS
  0
LAYER
  5
112
330
2
100
AcDbSymbolTableRecord
100
AcDbLayerTableRecord
  2
217
 70
     0
 62
   217
  6
CONTINUOUS
  0
LAYER
  5
113
330
2
100
AcDbSymbolTableRecord
100
AcDbLayerTableRecord
  2
218
 70
     0
 62
   218
  6
CONTINUOUS
  0
LAYER
  5
114
330
2
100
AcDbSymbolTableRecord
100
AcDbLayerTableRecord
  2
219
 70
     0
 62
   219
  6
CONTINUOUS
  0
LAYER
  5
115
330
2
100
AcDbSymbolTableRecord
100
AcDbLayerTableRecord
  2
220
 70
     0
 62
   220
  6
CONTINUOUS
  0
LAYER
  5
116
330
2
100
AcDbSymbolTableRecord
100
AcDbLayerTableRecord
  2
221
 70
     0
 62
   221
  6
CONTINUOUS
  0
LAYER
  5
117
330
2
100
AcDbSymbolTableRecord
100
AcDbLayerTableRecord
  2
222
 70
     0
 62
   222
  6
CONTINUOUS
  0
LAYER
  5
118
330
2
100
AcDbSymbolTableRecord
100
AcDbLayerTableRecord
  2
223
 70
     0
 62
   223
  6
CONTINUOUS
  0
LAYER
  5
119
330
2
100
AcDbSymbolTableRecord
100
AcDbLayerTableRecord
  2
224
 70
     0
 62
   224
  6
CONTINUOUS
  0
LAYER
  5
11A
330
2
100
AcDbSymbolTableRecord
100
AcDbLayerTableRecord
  2
225
 70
     0
 62
   225
  6
CONTINUOUS
  0
LAYER
  5
11B
330
2
100
AcDbSymbolTableRecord
100
AcDbLayerTableRecord
  2
226
 70
     0
 62
   226
  6
CONTINUOUS
  0
LAYER
  5
11C
330
2
100
AcDbSymbolTableRecord
100
AcDbLayerTableRecord
  2
227
 70
     0
 62
   227
  6
CONTINUOUS
  0
LAYER
  5
11D
330
2
100
AcDbSymbolTableRecord
100
AcDbLayerTableRecord
  2
228
 70
     0
 62
   228
  6
CONTINUOUS
  0
LAYER
  5
11E
330
2
100
AcDbSymbolTableRecord
100
AcDbLayerTableRecord
  2
229
 70
     0
 62
   229
  6
CONTINUOUS
  0
LAYER
  5
11F
330
2
100
AcDbSymbolTableRecord
100
AcDbLayerTableRecord
  2
230
 70
     0
 62
   230
  6
CONTINUOUS
  0
LAYER
  5
120
330
2
100
AcDbSymbolTableRecord
100
AcDbLayerTableRecord
  2
231
 70
     0
 62
   231
  6
CONTINUOUS
  0
LAYER
  5
121
330
2
100
AcDbSymbolTableRecord
100
AcDbLayerTableRecord
  2
232
 70
     0
 62
   232
  6
CONTINUOUS
  0
LAYER
  5
122
330
2
100
AcDbSymbolTableRecord
100
AcDbLayerTableRecord
  2
233
 70
     0
 62
   233
  6
CONTINUOUS
  0
LAYER
  5
123
330
2
100
AcDbSymbolTableRecord
100
AcDbLayerTableRecord
  2
234
 70
     0
 62
   234
  6
CONTINUOUS
  0
LAYER
  5
124
330
2
100
AcDbSymbolTableRecord
100
AcDbLayerTableRecord
  2
235
 70
     0
 62
   235
  6
CONTINUOUS
  0
LAYER
  5
125
330
2
100
AcDbSymbolTableRecord
100
AcDbLayerTableRecord
  2
236
 70
     0
 62
   236
  6
CONTINUOUS
  0
LAYER
  5
126
330
2
100
AcDbSymbolTableRecord
100
AcDbLayerTableRecord
  2
237
 70
     0
 62
   237
  6
CONTINUOUS
  0
LAYER
  5
127
330
2
100
AcDbSymbolTableRecord
100
AcDbLayerTableRecord
  2
238
 70
     0
 62
   238
  6
CONTINUOUS
  0
LAYER
  5
128
330
2
100
AcDbSymbolTableRecord
100
AcDbLayerTableRecord
  2
239
 70
     0
 62
   239
  6
CONTINUOUS
  0
LAYER
  5
129
330
2
100
AcDbSymbolTableRecord
100
AcDbLayerTableRecord
  2
240
 70
     0
 62
   240
  6
CONTINUOUS
  0
LAYER
  5
12A
330
2
100
AcDbSymbolTableRecord
100
AcDbLayerTableRecord
  2
241
 70
     0
 62
   241
  6
CONTINUOUS
  0
LAYER
  5
12B
330
2
100
AcDbSymbolTableRecord
100
AcDbLayerTableRecord
  2
242
 70
     0
 62
   242
  6
CONTINUOUS
  0
LAYER
  5
12C
330
2
100
AcDbSymbolTableRecord
100
AcDbLayerTableRecord
  2
243
 70
     0
 62
   243
  6
CONTINUOUS
  0
LAYER
  5
12D
330
2
100
AcDbSymbolTableRecord
100
AcDbLayerTableRecord
  2
244
 70
     0
 62
   244
  6
CONTINUOUS
  0
LAYER
  5
12E
330
2
100
AcDbSymbolTableRecord
100
AcDbLayerTableRecord
  2
245
 70
     0
 62
   245
  6
CONTINUOUS
  0
LAYER
  5
12F
330
2
100
AcDbSymbolTableRecord
100
AcDbLayerTableRecord
  2
246
 70
     0
 62
   246
  6
CONTINUOUS
  0
LAYER
  5
130
330
2
100
AcDbSymbolTableRecord
100
AcDbLayerTableRecord
  2
247
 70
     0
 62
   247
  6
CONTINUOUS
  0
LAYER
  5
131
330
2
100
AcDbSymbolTableRecord
100
AcDbLayerTableRecord
  2
248
 70
     0
 62
   248
  6
CONTINUOUS
  0
LAYER
  5
132
330
2
100
AcDbSymbolTableRecord
100
AcDbLayerTableRecord
  2
249
 70
     0
 62
   249
  6
CONTINUOUS
  0
LAYER
  5
133
330
2
100
AcDbSymbolTableRecord
100
AcDbLayerTableRecord
  2
250
 70
     0
 62
   250
  6
CONTINUOUS
  0
LAYER
  5
134
330
2
100
AcDbSymbolTableRecord
100
AcDbLayerTableRecord
  2
251
 70
     0
 62
   251
  6
CONTINUOUS
  0
LAYER
  5
135
330
2
100
AcDbSymbolTableRecord
100
AcDbLayerTableRecord
  2
252
 70
     0
 62
   252
  6
CONTINUOUS
  0
LAYER
  5
136
330
2
100
AcDbSymbolTableRecord
100
AcDbLayerTableRecord
  2
253
 70
     0
 62
   253
  6
CONTINUOUS
  0
LAYER
  5
137
330
2
100
AcDbSymbolTableRecord
100
AcDbLayerTableRecord
  2
254
 70
     0
 62
   254
  6
CONTINUOUS
  0
LAYER
  5
138
330
2
100
AcDbSymbolTableRecord
100
AcDbLayerTableRecord
  2
255
 70
     0
 62
   255
  6
CONTINUOUS
  0
ENDTAB
  0
TABLE
  2
STYLE
  5
3
330
0
100
AcDbSymbolTable
 70
     1
  0
STYLE
  5
11
330
3
100
AcDbSymbolTableRecord
100
AcDbTextStyleTableRecord
  2
STANDARD
 70
     0
 40
0.0
 41
1.0
 50
0.0
 71
     0
 42
0.2
  3
monotxt
  4

  0
ENDTAB
  0
TABLE
  2
VIEW
  5
6
330
0
100
AcDbSymbolTable
 70
     0
  0
ENDTAB
  0
TABLE
  2
UCS
  5
7
330
0
100
AcDbSymbolTable
 70
     0
  0
ENDTAB
  0
TABLE
  2
APPID
  5
9
330
0
100
AcDbSymbolTable
 70
     1
  0
APPID
  5
12
330
9
100
AcDbSymbolTableRecord
100
AcDbRegAppTableRecord
  2
ACAD
 70
     0
  0
ENDTAB
  0
TABLE
  2
DIMSTYLE
  5
A
330
0
100
AcDbSymbolTable
 70
     1
  0
DIMSTYLE
105
3E85
330
A
100
AcDbSymbolTableRecord
100
AcDbDimStyleTableRecord
  2
STANDARD
 70
     0
  3

  4

  5

  6

  7

 40
1.0
 41
0.18
 42
0.0625
 43
0.38
 44
0.18
 45
0.0
 46
0.0
 47
0.0
 48
0.0
140
0.18
141
0.09
142
0.0
143
25.4
144
1.0
145
0.0
146
1.0
147
0.09
 71
     0
 72
     0
 73
     1
 74
     1
 75
     0
 76
     0
 77
     0
 78
     0
170
     0
171
     2
172
     0
173
     0
174
     0
175
     0
176
     0
177
     0
178
     0
270
     2
271
     4
272
     4
273
     2
274
     2
340
11
275
     0
280
     0
281
     0
282
     0
283
     1
284
     0
285
     0
286
     0
287
     3
288
     0
  0
ENDTAB
  0
TABLE
  2
BLOCK_RECORD
  5
1
330
0
100
AcDbSymbolTable
 70
     0
  0
BLOCK_RECORD
  5
1E
102
{ACAD_XDICTIONARY
360
4047
102
}
330
1
100
AcDbSymbolTableRecord
100
AcDbBlockTableRecord
  2
*MODEL_SPACE
  0
BLOCK_RECORD
  5
1A
102
{ACAD_XDICTIONARY
360
4045
102
}
330
1
100
AcDbSymbolTableRecord
100
AcDbBlockTableRecord
  2
*PAPER_SPACE
  0
ENDTAB
  0
ENDSEC
  0
SECTION
  2
BLOCKS
  0
BLOCK
  5
13B
330
1E
100
AcDbEntity
  8
0
100
AcDbBlockBegin
  2
*MODEL_SPACE
 70
     0
 10
0.0
 20
0.0
 30
0.0
  3
*MODEL_SPACE
  1

  0
ENDBLK
  5
13C
330
1E
100
AcDbEntity
  8
0
100
AcDbBlockEnd
  0
BLOCK
  5
139
330
1A
100
AcDbEntity
 67
     1
  8
0
100
AcDbBlockBegin
  2
*PAPER_SPACE
 70
     0
 10
0.0
 20
0.0
 30
0.0
  3
*PAPER_SPACE
  1

  0
ENDBLK
  5
13A
330
1A
100
AcDbEntity
 67
     1
  8
0
100
AcDbBlockEnd
  0
ENDSEC
  0
SECTION
  2
ENTITIES
  0
LINE
  5
3A53
330
1E
100
AcDbEntity
  8
3
100
AcDbLine
 10
21.37295574933563
 20
0.6833611221948815
 30
0.0
 11
22.01366668686023
 21
0.6833611221948815
 31
0.0
  0
LINE
  5
3A54
330
1E
100
AcDbEntity
  8
3
100
AcDbLine
 10
21.37295574933563
 20
0.5239215340551189
 30
0.0
 11
21.37295574933563
 21
0.6833611221948815
 31
0.0
  0
LINE
  5
3A55
330
1E
100
AcDbEntity
  8
3
100
AcDbLine
 10
22.01366668686023
 20
0.5239215340551189
 30
0.0
 11
21.37295574933563
 21
0.5239215340551189
 31
0.0
  0
LINE
  5
3A56
330
1E
100
AcDbEntity
  8
3
100
AcDbLine
 10
3.754881259891732
 20
0.6833611221948815
 30
0.0
 11
3.114170322367125
 21
0.6833611221948815
 31
0.0
  0
LINE
  5
3A57
330
1E
100
AcDbEntity
  8
3
100
AcDbLine
 10
22.01366668686023
 20
0.6833611221948815
 30
0.0
 11
22.01366668686023
 21
0.5239215340551189
 31
0.0
  0
LINE
  5
3A58
330
1E
100
AcDbEntity
  8
3
100
AcDbLine
 10
3.114170322367125
 20
0.5239215340551189
 30
0.0
 11
3.754881259891732
 21
0.5239215340551189
 31
0.0
  0
LINE
  5
3A59
330
1E
100
AcDbEntity
  8
3
100
AcDbLine
 10
3.114170322367125
 20
0.6833611221948815
 30
0.0
 11
3.114170322367125
 21
0.5239215340551189
 31
0.0
  0
LINE
  5
3A5A
330
1E
100
AcDbEntity
  8
3
100
AcDbLine
 10
3.754881259891732
 20
0.5239215340551189
 30
0.0
 11
3.754881259891732
 21
0.6833611221948815
 31
0.0
  0
LINE
  5
3A5B
330
1E
100
AcDbEntity
  8
3
100
AcDbLine
 10
3.063976377952756
 20
0.423533645226379
 30
0.0
 11
3.063976377952756
 21
1.084912677509843
 31
0.0
  0
LINE
  5
3A5C
330
1E
100
AcDbEntity
  8
3
100
AcDbLine
 10
22.0638606312746
 20
0.1459906584645676
 30
0.0
 11
22.0638606312746
 21
-0.5153883738188974
 31
0.0
  0
LINE
  5
3A5D
330
1E
100
AcDbEntity
  8
3
100
AcDbLine
 10
21.46448588326772
 20
1.143964376820867
 30
0.0
 11
22.00480893196358
 21
1.143964376820867
 31
0.0
  0
LINE
  5
3A5E
330
1E
100
AcDbEntity
  8
3
100
AcDbLine
 10
3.663351125959645
 20
-0.5744400731299209
 30
0.0
 11
3.12598066222933
 21
-0.5744400731299209
 31
0.0
  0
LINE
  5
3A5F
330
1E
100
AcDbEntity
  8
3
100
AcDbLine
 10
21.46448588326772
 20
-0.5744400731299209
 30
0.0
 11
21.46448588326772
 21
-0.4858625241633856
 31
0.0
  0
LINE
  5
3A60
330
1E
100
AcDbEntity
  8
3
100
AcDbLine
 10
22.00480893196358
 20
-0.5744400731299209
 30
0.0
 11
21.46448588326772
 21
-0.5744400731299209
 31
0.0
  0
LINE
  5
3A66
330
1E
100
AcDbEntity
  8
3
100
AcDbLine
 10
21.65935649099409
 20
0.1459906584645676
 30
0.0
 11
22.0638606312746
 21
0.1459906584645676
 31
0.0
  0
LINE
  5
3A71
330
1E
100
AcDbEntity
  8
3
100
AcDbLine
 10
22.0638606312746
 20
0.423533645226379
 30
0.0
 11
21.65935649099409
 21
0.423533645226379
 31
0.0
  0
LINE
  5
3A72
330
1E
100
AcDbEntity
  8
3
100
AcDbLine
 10
22.0638606312746
 20
1.084912677509843
 30
0.0
 11
22.0638606312746
 21
0.423533645226379
 31
0.0
  0
LINE
  5
3A78
330
1E
100
AcDbEntity
  8
3
100
AcDbLine
 10
21.46448588326772
 20
1.05538682785433
 30
0.0
 11
21.46448588326772
 21
1.143964376820867
 31
0.0
  0
LINE
  5
3A80
330
1E
100
AcDbEntity
  8
3
100
AcDbLine
 10
3.784407109547244
 20
1.05538682785433
 30
0.0
 11
21.34342989968011
 21
1.05538682785433
 31
0.0
  0
LINE
  5
3A88
330
1E
100
AcDbEntity
  8
3
100
AcDbLine
 10
3.663351125959645
 20
1.143964376820867
 30
0.0
 11
3.663351125959645
 21
1.05538682785433
 31
0.0
  0
LINE
  5
3A89
330
1E
100
AcDbEntity
  8
3
100
AcDbLine
 10
3.12598066222933
 20
1.143964376820867
 30
0.0
 11
3.663351125959645
 21
1.143964376820867
 31
0.0
  0
LINE
  5
3A8F
330
1E
100
AcDbEntity
  8
3
100
AcDbLine
 10
3.468480518233267
 20
0.423533645226379
 30
0.0
 11
3.063976377952756
 21
0.423533645226379
 31
0.0
  0
LINE
  5
3A9D
330
1E
100
AcDbEntity
  8
3
100
AcDbLine
 10
3.063976377952756
 20
0.1459906584645676
 30
0.0
 11
3.468480518233267
 21
0.1459906584645676
 31
0.0
  0
LINE
  5
3A9E
330
1E
100
AcDbEntity
  8
3
100
AcDbLine
 10
3.063976377952756
 20
-0.5153883738188974
 30
0.0
 11
3.063976377952756
 21
0.1459906584645676
 31
0.0
  0
LINE
  5
3AA4
330
1E
100
AcDbEntity
  8
3
100
AcDbLine
 10
3.663351125959645
 20
-0.4858625241633856
 30
0.0
 11
3.663351125959645
 21
-0.5744400731299209
 31
0.0
  0
LINE
  5
3AAC
330
1E
100
AcDbEntity
  8
3
100
AcDbLine
 10
21.34342989968011
 20
-0.4858625241633856
 30
0.0
 11
3.784407109547244
 21
-0.4858625241633856
 31
0.0
  0
LINE
  5
3AB4
330
1E
100
AcDbEntity
  8
3
100
AcDbLine
 10
21.65935649099409
 20
1.049481657923229
 30
0.0
 11
21.77745988961614
 21
1.049481657923229
 31
0.0
  0
LINE
  5
3AB5
330
1E
100
AcDbEntity
  8
3
100
AcDbLine
 10
21.77745988961614
 20
0.7719386711614176
 30
0.0
 11
21.83651158892716
 21
0.7867015959891761
 31
0.0
  0
LINE
  5
3ABF
330
1E
100
AcDbEntity
  8
3
100
AcDbLine
 10
21.65935649099409
 20
0.7689860861958673
 30
0.0
 11
21.77745988961614
 21
0.7689860861958673
 31
0.0
  0
LINE
  5
3ACD
330
1E
100
AcDbEntity
  8
3
100
AcDbLine
 10
21.65935649099409
 20
-0.1994617825049207
 30
0.0
 11
21.77745988961614
 21
-0.1994617825049207
 31
0.0
  0
LINE
  5
3AD7
330
1E
100
AcDbEntity
  8
3
100
AcDbLine
 10
21.83651158892716
 20
-0.2171772922982278
 30
0.0
 11
21.77745988961614
 21
-0.202414367470471
 31
0.0
  0
LINE
  5
3AD8
330
1E
100
AcDbEntity
  8
3
100
AcDbLine
 10
21.65935649099409
 20
-0.4799573542322833
 30
0.0
 11
21.77745988961614
 21
-0.4799573542322833
 31
0.0
  0
LINE
  5
3AE3
330
1E
100
AcDbEntity
  8
3
100
AcDbLine
 10
3.35037711961122
 20
1.049481657923229
 30
0.0
 11
3.468480518233267
 21
1.049481657923229
 31
0.0
  0
LINE
  5
3AEE
330
1E
100
AcDbEntity
  8
3
100
AcDbLine
 10
3.35037711961122
 20
0.7689860861958673
 30
0.0
 11
3.468480518233267
 21
0.7689860861958673
 31
0.0
  0
LINE
  5
3AF9
330
1E
100
AcDbEntity
  8
3
100
AcDbLine
 10
3.35037711961122
 20
-0.1994617825049207
 30
0.0
 11
3.468480518233267
 21
-0.1994617825049207
 31
0.0
  0
LINE
  5
3B04
330
1E
100
AcDbEntity
  8
3
100
AcDbLine
 10
3.35037711961122
 20
-0.4799573542322833
 30
0.0
 11
3.468480518233267
 21
-0.4799573542322833
 31
0.0
  0
LINE
  5
3B23
330
1E
100
AcDbEntity
  8
3
100
AcDbLine
 10
16.94998347093996
 20
0.2847621518454728
 30
0.0
 11
16.96179381080216
 21
0.2316156224655517
 31
0.0
  0
LINE
  5
3B81
330
1E
100
AcDbEntity
  8
3
100
AcDbLine
 10
17.25705230735728
 20
0.9845247886811021
 30
0.0
 11
17.25705230735728
 21
-0.4150004849901566
 31
0.0
  0
LINE
  5
3B87
330
1E
100
AcDbEntity
  8
3
100
AcDbLine
 10
17.25705230735728
 20
-0.4150004849901566
 30
0.0
 11
20.8060594359498
 21
-0.4150004849901566
 31
0.0
  0
LINE
  5
3B88
330
1E
100
AcDbEntity
  8
3
100
AcDbLine
 10
12.94627825765255
 20
0.9845247886811021
 30
0.0
 11
12.94627825765255
 21
-0.4150004849901566
 31
0.0
  0
LINE
  5
3B8E
330
1E
100
AcDbEntity
  8
3
100
AcDbLine
 10
12.94627825765255
 20
-0.4150004849901566
 30
0.0
 11
16.49528538624507
 21
-0.4150004849901566
 31
0.0
  0
LINE
  5
3B8F
330
1E
100
AcDbEntity
  8
3
100
AcDbLine
 10
8.632551622982282
 20
0.9845247886811021
 30
0.0
 11
8.632551622982282
 21
-0.4150004849901566
 31
0.0
  0
LINE
  5
3B95
330
1E
100
AcDbEntity
  8
3
100
AcDbLine
 10
8.632551622982282
 20
-0.4150004849901566
 30
0.0
 11
12.1815587515748
 21
-0.4150004849901566
 31
0.0
  0
LINE
  5
3BAA
330
1E
100
AcDbEntity
  8
3
100
AcDbLine
 10
4.014708736860235
 20
0.2847621518454728
 30
0.0
 11
4.02651907672244
 21
0.2316156224655517
 31
0.0
  0
LINE
  5
3BBB
330
1E
100
AcDbEntity
  8
3
100
AcDbLine
 10
4.321777573277557
 20
0.9845247886811021
 30
0.0
 11
4.321777573277557
 21
-0.4150004849901566
 31
0.0
  0
LINE
  5
3BC1
330
1E
100
AcDbEntity
  8
3
100
AcDbLine
 10
4.321777573277557
 20
-0.4150004849901566
 30
0.0
 11
7.870784701870077
 21
-0.4150004849901566
 31
0.0
  0
LINE
  5
3BC2
330
1E
100
AcDbEntity
  8
3
100
AcDbLine
 10
3.784407109547244
 20
-0.4858625241633856
 30
0.0
 11
3.872984658513779
 21
-0.4858625241633856
 31
0.0
  0
LINE
  5
3BC3
330
1E
100
AcDbEntity
  8
3
100
AcDbLine
 10
4.053092341412401
 20
-0.4858625241633856
 30
0.0
 11
4.233200024311022
 21
-0.4858625241633856
 31
0.0
  0
LINE
  5
3BC4
330
1E
100
AcDbEntity
  8
3
100
AcDbLine
 10
4.410355122244093
 20
-0.4858625241633856
 30
0.0
 11
4.590462805142715
 21
-0.4858625241633856
 31
0.0
  0
LINE
  5
3BC5
330
1E
100
AcDbEntity
  8
3
100
AcDbLine
 10
4.770570488041338
 20
-0.4858625241633856
 30
0.0
 11
4.947725585974408
 21
-0.4858625241633856
 31
0.0
  0
LINE
  5
3BC6
330
1E
100
AcDbEntity
  8
3
100
AcDbLine
 10
5.127833268873031
 20
-0.4858625241633856
 30
0.0
 11
5.307940951771653
 21
-0.4858625241633856
 31
0.0
  0
LINE
  5
3BC7
330
1E
100
AcDbEntity
  8
3
100
AcDbLine
 10
5.488048634670274
 20
-0.4858625241633856
 30
0.0
 11
5.665203732603346
 21
-0.4858625241633856
 31
0.0
  0
LINE
  5
3BC8
330
1E
100
AcDbEntity
  8
3
100
AcDbLine
 10
5.845311415501967
 20
-0.4858625241633856
 30
0.0
 11
6.02541909840059
 21
-0.4858625241633856
 31
0.0
  0
LINE
  5
3BC9
330
1E
100
AcDbEntity
  8
3
100
AcDbLine
 10
6.20257419633366
 20
-0.4858625241633856
 30
0.0
 11
6.382681879232281
 21
-0.4858625241633856
 31
0.0
  0
LINE
  5
3BCA
330
1E
100
AcDbEntity
  8
3
100
AcDbLine
 10
6.562789562130902
 20
-0.4858625241633856
 30
0.0
 11
6.739944660063976
 21
-0.4858625241633856
 31
0.0
  0
LINE
  5
3BCB
330
1E
100
AcDbEntity
  8
3
100
AcDbLine
 10
6.920052342962597
 20
-0.4858625241633856
 30
0.0
 11
7.100160025861217
 21
-0.4858625241633856
 31
0.0
  0
LINE
  5
3BCC
330
1E
100
AcDbEntity
  8
3
100
AcDbLine
 10
7.277315123794288
 20
-0.4858625241633856
 30
0.0
 11
7.457422806692912
 21
-0.4858625241633856
 31
0.0
  0
LINE
  5
3BCD
330
1E
100
AcDbEntity
  8
3
100
AcDbLine
 10
7.637530489591533
 20
-0.4858625241633856
 30
0.0
 11
7.814685587524603
 21
-0.4858625241633856
 31
0.0
  0
LINE
  5
3BCE
330
1E
100
AcDbEntity
  8
3
100
AcDbLine
 10
7.994793270423228
 20
-0.4858625241633856
 30
0.0
 11
8.174900953321849
 21
-0.4858625241633856
 31
0.0
  0
LINE
  5
3BCF
330
1E
100
AcDbEntity
  8
3
100
AcDbLine
 10
8.352056051254919
 20
-0.4858625241633856
 30
0.0
 11
8.53216373415354
 21
-0.4858625241633856
 31
0.0
  0
LINE
  5
3BD0
330
1E
100
AcDbEntity
  8
3
100
AcDbLine
 10
8.712271417052164
 20
-0.4858625241633856
 30
0.0
 11
8.892379099950785
 21
-0.4858625241633856
 31
0.0
  0
LINE
  5
3BD1
330
1E
100
AcDbEntity
  8
3
100
AcDbLine
 10
9.069534197883855
 20
-0.4858625241633856
 30
0.0
 11
9.249641880782478
 21
-0.4858625241633856
 31
0.0
  0
LINE
  5
3BD2
330
1E
100
AcDbEntity
  8
3
100
AcDbLine
 10
9.429749563681101
 20
-0.4858625241633856
 30
0.0
 11
9.606904661614171
 21
-0.4858625241633856
 31
0.0
  0
LINE
  5
3BD3
330
1E
100
AcDbEntity
  8
3
100
AcDbLine
 10
9.787012344512794
 20
-0.4858625241633856
 30
0.0
 11
9.967120027411414
 21
-0.4858625241633856
 31
0.0
  0
LINE
  5
3BD4
330
1E
100
AcDbEntity
  8
3
100
AcDbLine
 10
10.14427512534448
 20
-0.4858625241633856
 30
0.0
 11
10.3243828082431
 21
-0.4858625241633856
 31
0.0
  0
LINE
  5
3BD5
330
1E
100
AcDbEntity
  8
3
100
AcDbLine
 10
10.50449049114173
 20
-0.4858625241633856
 30
0.0
 11
10.6816455890748
 21
-0.4858625241633856
 31
0.0
  0
LINE
  5
3BD6
330
1E
100
AcDbEntity
  8
3
100
AcDbLine
 10
10.86175327197342
 20
-0.4858625241633856
 30
0.0
 11
11.04186095487204
 21
-0.4858625241633856
 31
0.0
  0
LINE
  5
3BD7
330
1E
100
AcDbEntity
  8
3
100
AcDbLine
 10
11.21901605280511
 20
-0.4858625241633856
 30
0.0
 11
11.39912373570373
 21
-0.4858625241633856
 31
0.0
  0
LINE
  5
3BD8
330
1E
100
AcDbEntity
  8
3
100
AcDbLine
 10
11.57923141860235
 20
-0.4858625241633856
 30
0.0
 11
11.75638651653543
 21
-0.4858625241633856
 31
0.0
  0
LINE
  5
3BD9
330
1E
100
AcDbEntity
  8
3
100
AcDbLine
 10
11.93649419943405
 20
-0.4858625241633856
 30
0.0
 11
12.11660188233267
 21
-0.4858625241633856
 31
0.0
  0
LINE
  5
3BDA
330
1E
100
AcDbEntity
  8
3
100
AcDbLine
 10
12.29375698026574
 20
-0.4858625241633856
 30
0.0
 11
12.47386466316436
 21
-0.4858625241633856
 31
0.0
  0
LINE
  5
3BDB
330
1E
100
AcDbEntity
  8
3
100
AcDbLine
 10
12.65397234606298
 20
-0.4858625241633856
 30
0.0
 11
12.83408002896161
 21
-0.4858625241633856
 31
0.0
  0
LINE
  5
3BDC
330
1E
100
AcDbEntity
  8
3
100
AcDbLine
 10
13.01123512689468
 20
-0.4858625241633856
 30
0.0
 11
13.1913428097933
 21
-0.4858625241633856
 31
0.0
  0
LINE
  5
3BDD
330
1E
100
AcDbEntity
  8
3
100
AcDbLine
 10
13.37145049269192
 20
-0.4858625241633856
 30
0.0
 11
13.54860559062499
 21
-0.4858625241633856
 31
0.0
  0
LINE
  5
3BDE
330
1E
100
AcDbEntity
  8
3
100
AcDbLine
 10
13.72871327352362
 20
-0.4858625241633856
 30
0.0
 11
13.90882095642224
 21
-0.4858625241633856
 31
0.0
  0
LINE
  5
3BDF
330
1E
100
AcDbEntity
  8
3
100
AcDbLine
 10
14.08597605435531
 20
-0.4858625241633856
 30
0.0
 11
14.26608373725393
 21
-0.4858625241633856
 31
0.0
  0
LINE
  5
3BE0
330
1E
100
AcDbEntity
  8
3
100
AcDbLine
 10
14.44619142015255
 20
-0.4858625241633856
 30
0.0
 11
14.62334651808562
 21
-0.4858625241633856
 31
0.0
  0
LINE
  5
3BE1
330
1E
100
AcDbEntity
  8
3
100
AcDbLine
 10
14.80345420098425
 20
-0.4858625241633856
 30
0.0
 11
14.98356188388287
 21
-0.4858625241633856
 31
0.0
  0
LINE
  5
3BE2
330
1E
100
AcDbEntity
  8
3
100
AcDbLine
 10
15.16071698181594
 20
-0.4858625241633856
 30
0.0
 11
15.34082466471456
 21
-0.4858625241633856
 31
0.0
  0
LINE
  5
3BE3
330
1E
100
AcDbEntity
  8
3
100
AcDbLine
 10
15.52093234761318
 20
-0.4858625241633856
 30
0.0
 11
15.69808744554626
 21
-0.4858625241633856
 31
0.0
  0
LINE
  5
3BE4
330
1E
100
AcDbEntity
  8
3
100
AcDbLine
 10
15.87819512844487
 20
-0.4858625241633856
 30
0.0
 11
16.0583028113435
 21
-0.4858625241633856
 31
0.0
  0
LINE
  5
3BE5
330
1E
100
AcDbEntity
  8
3
100
AcDbLine
 10
16.23841049424212
 20
-0.4858625241633856
 30
0.0
 11
16.41556559217519
 21
-0.4858625241633856
 31
0.0
  0
LINE
  5
3BE6
330
1E
100
AcDbEntity
  8
3
100
AcDbLine
 10
16.59567327507381
 20
-0.4858625241633856
 30
0.0
 11
16.77578095797244
 21
-0.4858625241633856
 31
0.0
  0
LINE
  5
3BE7
330
1E
100
AcDbEntity
  8
3
100
AcDbLine
 10
16.9529360559055
 20
-0.4858625241633856
 30
0.0
 11
17.13304373880413
 21
-0.4858625241633856
 31
0.0
  0
LINE
  5
3BE8
330
1E
100
AcDbEntity
  8
3
100
AcDbLine
 10
17.31315142170275
 20
-0.4858625241633856
 30
0.0
 11
17.49030651963582
 21
-0.4858625241633856
 31
0.0
  0
LINE
  5
3BE9
330
1E
100
AcDbEntity
  8
3
100
AcDbLine
 10
17.67041420253445
 20
-0.4858625241633856
 30
0.0
 11
17.85052188543306
 21
-0.4858625241633856
 31
0.0
  0
LINE
  5
3BEA
330
1E
100
AcDbEntity
  8
3
100
AcDbLine
 10
18.02767698336614
 20
-0.4858625241633856
 30
0.0
 11
18.20778466626476
 21
-0.4858625241633856
 31
0.0
  0
LINE
  5
3BEB
330
1E
100
AcDbEntity
  8
3
100
AcDbLine
 10
18.38789234916338
 20
-0.4858625241633856
 30
0.0
 11
18.56504744709646
 21
-0.4858625241633856
 31
0.0
  0
LINE
  5
3BEC
330
1E
100
AcDbEntity
  8
3
100
AcDbLine
 10
18.74515512999507
 20
-0.4858625241633856
 30
0.0
 11
18.9252628128937
 21
-0.4858625241633856
 31
0.0
  0
LINE
  5
3BED
330
1E
100
AcDbEntity
  8
3
100
AcDbLine
 10
19.10241791082677
 20
-0.4858625241633856
 30
0.0
 11
19.28252559372539
 21
-0.4858625241633856
 31
0.0
  0
LINE
  5
3BEE
330
1E
100
AcDbEntity
  8
3
100
AcDbLine
 10
19.46263327662401
 20
-0.4858625241633856
 30
0.0
 11
19.64274095952264
 21
-0.4858625241633856
 31
0.0
  0
LINE
  5
3BEF
330
1E
100
AcDbEntity
  8
3
100
AcDbLine
 10
19.8198960574557
 20
-0.4858625241633856
 30
0.0
 11
20.00000374035433
 21
-0.4858625241633856
 31
0.0
  0
LINE
  5
3BF0
330
1E
100
AcDbEntity
  8
3
100
AcDbLine
 10
20.18011142325295
 20
-0.4858625241633856
 30
0.0
 11
20.35726652118602
 21
-0.4858625241633856
 31
0.0
  0
LINE
  5
3BF1
330
1E
100
AcDbEntity
  8
3
100
AcDbLine
 10
20.53737420408464
 20
-0.4858625241633856
 30
0.0
 11
20.71748188698327
 21
-0.4858625241633856
 31
0.0
  0
LINE
  5
3BF2
330
1E
100
AcDbEntity
  8
3
100
AcDbLine
 10
20.89463698491634
 20
-0.4858625241633856
 30
0.0
 11
21.07474466781496
 21
-0.4858625241633856
 31
0.0
  0
LINE
  5
3BF3
330
1E
100
AcDbEntity
  8
3
100
AcDbLine
 10
21.25485235071358
 20
-0.4858625241633856
 30
0.0
 11
21.34342989968011
 21
-0.4858625241633856
 31
0.0
  0
LINE
  5
3BF4
330
1E
100
AcDbEntity
  8
3
100
AcDbLine
 10
21.34342989968011
 20
1.05538682785433
 30
0.0
 11
21.25485235071358
 21
1.05538682785433
 31
0.0
  0
LINE
  5
3BF5
330
1E
100
AcDbEntity
  8
3
100
AcDbLine
 10
21.07474466781496
 20
1.05538682785433
 30
0.0
 11
20.89463698491634
 21
1.05538682785433
 31
0.0
  0
LINE
  5
3BF6
330
1E
100
AcDbEntity
  8
3
100
AcDbLine
 10
20.71748188698327
 20
1.05538682785433
 30
0.0
 11
20.53737420408464
 21
1.05538682785433
 31
0.0
  0
LINE
  5
3BF7
330
1E
100
AcDbEntity
  8
3
100
AcDbLine
 10
20.35726652118602
 20
1.05538682785433
 30
0.0
 11
20.18011142325295
 21
1.05538682785433
 31
0.0
  0
LINE
  5
3BF8
330
1E
100
AcDbEntity
  8
3
100
AcDbLine
 10
20.00000374035433
 20
1.05538682785433
 30
0.0
 11
19.8198960574557
 21
1.05538682785433
 31
0.0
  0
LINE
  5
3BF9
330
1E
100
AcDbEntity
  8
3
100
AcDbLine
 10
19.64274095952264
 20
1.05538682785433
 30
0.0
 11
19.46263327662401
 21
1.05538682785433
 31
0.0
  0
LINE
  5
3BFA
330
1E
100
AcDbEntity
  8
3
100
AcDbLine
 10
19.28252559372539
 20
1.05538682785433
 30
0.0
 11
19.10241791082677
 21
1.05538682785433
 31
0.0
  0
LINE
  5
3BFB
330
1E
100
AcDbEntity
  8
3
100
AcDbLine
 10
18.9252628128937
 20
1.05538682785433
 30
0.0
 11
18.74515512999507
 21
1.05538682785433
 31
0.0
  0
LINE
  5
3BFC
330
1E
100
AcDbEntity
  8
3
100
AcDbLine
 10
18.56504744709646
 20
1.05538682785433
 30
0.0
 11
18.38789234916338
 21
1.05538682785433
 31
0.0
  0
LINE
  5
3BFD
330
1E
100
AcDbEntity
  8
3
100
AcDbLine
 10
18.20778466626476
 20
1.05538682785433
 30
0.0
 11
18.02767698336614
 21
1.05538682785433
 31
0.0
  0
LINE
  5
3BFE
330
1E
100
AcDbEntity
  8
3
100
AcDbLine
 10
17.85052188543306
 20
1.05538682785433
 30
0.0
 11
17.67041420253445
 21
1.05538682785433
 31
0.0
  0
LINE
  5
3BFF
330
1E
100
AcDbEntity
  8
3
100
AcDbLine
 10
17.49030651963582
 20
1.05538682785433
 30
0.0
 11
17.31315142170275
 21
1.05538682785433
 31
0.0
  0
LINE
  5
3C00
330
1E
100
AcDbEntity
  8
3
100
AcDbLine
 10
17.13304373880413
 20
1.05538682785433
 30
0.0
 11
16.9529360559055
 21
1.05538682785433
 31
0.0
  0
LINE
  5
3C01
330
1E
100
AcDbEntity
  8
3
100
AcDbLine
 10
16.77578095797244
 20
1.05538682785433
 30
0.0
 11
16.59567327507381
 21
1.05538682785433
 31
0.0
  0
LINE
  5
3C02
330
1E
100
AcDbEntity
  8
3
100
AcDbLine
 10
16.41556559217519
 20
1.05538682785433
 30
0.0
 11
16.23841049424212
 21
1.05538682785433
 31
0.0
  0
LINE
  5
3C03
330
1E
100
AcDbEntity
  8
3
100
AcDbLine
 10
16.0583028113435
 20
1.05538682785433
 30
0.0
 11
15.87819512844487
 21
1.05538682785433
 31
0.0
  0
LINE
  5
3C04
330
1E
100
AcDbEntity
  8
3
100
AcDbLine
 10
15.69808744554626
 20
1.05538682785433
 30
0.0
 11
15.52093234761318
 21
1.05538682785433
 31
0.0
  0
LINE
  5
3C05
330
1E
100
AcDbEntity
  8
3
100
AcDbLine
 10
15.34082466471456
 20
1.05538682785433
 30
0.0
 11
15.16071698181594
 21
1.05538682785433
 31
0.0
  0
LINE
  5
3C06
330
1E
100
AcDbEntity
  8
3
100
AcDbLine
 10
14.98356188388287
 20
1.05538682785433
 30
0.0
 11
14.80345420098425
 21
1.05538682785433
 31
0.0
  0
LINE
  5
3C07
330
1E
100
AcDbEntity
  8
3
100
AcDbLine
 10
14.62334651808562
 20
1.05538682785433
 30
0.0
 11
14.44619142015255
 21
1.05538682785433
 31
0.0
  0
LINE
  5
3C08
330
1E
100
AcDbEntity
  8
3
100
AcDbLine
 10
14.26608373725393
 20
1.05538682785433
 30
0.0
 11
14.08597605435531
 21
1.05538682785433
 31
0.0
  0
LINE
  5
3C09
330
1E
100
AcDbEntity
  8
3
100
AcDbLine
 10
13.90882095642224
 20
1.05538682785433
 30
0.0
 11
13.72871327352362
 21
1.05538682785433
 31
0.0
  0
LINE
  5
3C0A
330
1E
100
AcDbEntity
  8
3
100
AcDbLine
 10
13.54860559062499
 20
1.05538682785433
 30
0.0
 11
13.37145049269192
 21
1.05538682785433
 31
0.0
  0
LINE
  5
3C0B
330
1E
100
AcDbEntity
  8
3
100
AcDbLine
 10
13.1913428097933
 20
1.05538682785433
 30
0.0
 11
13.01123512689468
 21
1.05538682785433
 31
0.0
  0
LINE
  5
3C0C
330
1E
100
AcDbEntity
  8
3
100
AcDbLine
 10
12.83408002896161
 20
1.05538682785433
 30
0.0
 11
12.65397234606298
 21
1.05538682785433
 31
0.0
  0
LINE
  5
3C0D
330
1E
100
AcDbEntity
  8
3
100
AcDbLine
 10
12.47386466316436
 20
1.05538682785433
 30
0.0
 11
12.29375698026574
 21
1.05538682785433
 31
0.0
  0
LINE
  5
3C0E
330
1E
100
AcDbEntity
  8
3
100
AcDbLine
 10
12.11660188233267
 20
1.05538682785433
 30
0.0
 11
11.93649419943405
 21
1.05538682785433
 31
0.0
  0
LINE
  5
3C0F
330
1E
100
AcDbEntity
  8
3
100
AcDbLine
 10
11.75638651653543
 20
1.05538682785433
 30
0.0
 11
11.57923141860235
 21
1.05538682785433
 31
0.0
  0
LINE
  5
3C10
330
1E
100
AcDbEntity
  8
3
100
AcDbLine
 10
11.39912373570373
 20
1.05538682785433
 30
0.0
 11
11.21901605280511
 21
1.05538682785433
 31
0.0
  0
LINE
  5
3C11
330
1E
100
AcDbEntity
  8
3
100
AcDbLine
 10
11.04186095487204
 20
1.05538682785433
 30
0.0
 11
10.86175327197342
 21
1.05538682785433
 31
0.0
  0
LINE
  5
3C12
330
1E
100
AcDbEntity
  8
3
100
AcDbLine
 10
10.6816455890748
 20
1.05538682785433
 30
0.0
 11
10.50449049114173
 21
1.05538682785433
 31
0.0
  0
LINE
  5
3C13
330
1E
100
AcDbEntity
  8
3
100
AcDbLine
 10
10.3243828082431
 20
1.05538682785433
 30
0.0
 11
10.14427512534448
 21
1.05538682785433
 31
0.0
  0
LINE
  5
3C14
330
1E
100
AcDbEntity
  8
3
100
AcDbLine
 10
9.967120027411414
 20
1.05538682785433
 30
0.0
 11
9.787012344512794
 21
1.05538682785433
 31
0.0
  0
LINE
  5
3C15
330
1E
100
AcDbEntity
  8
3
100
AcDbLine
 10
9.606904661614171
 20
1.05538682785433
 30
0.0
 11
9.429749563681101
 21
1.05538682785433
 31
0.0
  0
LINE
  5
3C16
330
1E
100
AcDbEntity
  8
3
100
AcDbLine
 10
9.249641880782478
 20
1.05538682785433
 30
0.0
 11
9.069534197883855
 21
1.05538682785433
 31
0.0
  0
LINE
  5
3C17
330
1E
100
AcDbEntity
  8
3
100
AcDbLine
 10
8.892379099950785
 20
1.05538682785433
 30
0.0
 11
8.712271417052164
 21
1.05538682785433
 31
0.0
  0
LINE
  5
3C18
330
1E
100
AcDbEntity
  8
3
100
AcDbLine
 10
8.53216373415354
 20
1.05538682785433
 30
0.0
 11
8.352056051254919
 21
1.05538682785433
 31
0.0
  0
LINE
  5
3C19
330
1E
100
AcDbEntity
  8
3
100
AcDbLine
 10
8.174900953321849
 20
1.05538682785433
 30
0.0
 11
7.994793270423228
 21
1.05538682785433
 31
0.0
  0
LINE
  5
3C1A
330
1E
100
AcDbEntity
  8
3
100
AcDbLine
 10
7.814685587524603
 20
1.05538682785433
 30
0.0
 11
7.637530489591533
 21
1.05538682785433
 31
0.0
  0
LINE
  5
3C1B
330
1E
100
AcDbEntity
  8
3
100
AcDbLine
 10
7.457422806692912
 20
1.05538682785433
 30
0.0
 11
7.277315123794288
 21
1.05538682785433
 31
0.0
  0
LINE
  5
3C1C
330
1E
100
AcDbEntity
  8
3
100
AcDbLine
 10
7.100160025861217
 20
1.05538682785433
 30
0.0
 11
6.920052342962597
 21
1.05538682785433
 31
0.0
  0
LINE
  5
3C1D
330
1E
100
AcDbEntity
  8
3
100
AcDbLine
 10
6.739944660063976
 20
1.05538682785433
 30
0.0
 11
6.562789562130902
 21
1.05538682785433
 31
0.0
  0
LINE
  5
3C1E
330
1E
100
AcDbEntity
  8
3
100
AcDbLine
 10
6.382681879232281
 20
1.05538682785433
 30
0.0
 11
6.20257419633366
 21
1.05538682785433
 31
0.0
  0
LINE
  5
3C1F
330
1E
100
AcDbEntity
  8
3
100
AcDbLine
 10
6.02541909840059
 20
1.05538682785433
 30
0.0
 11
5.845311415501967
 21
1.05538682785433
 31
0.0
  0
LINE
  5
3C20
330
1E
100
AcDbEntity
  8
3
100
AcDbLine
 10
5.665203732603346
 20
1.05538682785433
 30
0.0
 11
5.488048634670274
 21
1.05538682785433
 31
0.0
  0
LINE
  5
3C21
330
1E
100
AcDbEntity
  8
3
100
AcDbLine
 10
5.307940951771653
 20
1.05538682785433
 30
0.0
 11
5.127833268873031
 21
1.05538682785433
 31
0.0
  0
LINE
  5
3C22
330
1E
100
AcDbEntity
  8
3
100
AcDbLine
 10
4.947725585974408
 20
1.05538682785433
 30
0.0
 11
4.770570488041338
 21
1.05538682785433
 31
0.0
  0
LINE
  5
3C23
330
1E
100
AcDbEntity
  8
3
100
AcDbLine
 10
4.590462805142715
 20
1.05538682785433
 30
0.0
 11
4.410355122244093
 21
1.05538682785433
 31
0.0
  0
LINE
  5
3C24
330
1E
100
AcDbEntity
  8
3
100
AcDbLine
 10
4.233200024311022
 20
1.05538682785433
 30
0.0
 11
4.053092341412401
 21
1.05538682785433
 31
0.0
  0
LINE
  5
3C25
330
1E
100
AcDbEntity
  8
3
100
AcDbLine
 10
3.872984658513779
 20
1.05538682785433
 30
0.0
 11
3.784407109547244
 21
1.05538682785433
 31
0.0
  0
LINE
  5
3C26
330
1E
100
AcDbEntity
  8
3
100
AcDbLine
 10
3.784407109547244
 20
-0.5153883738188974
 30
0.0
 11
3.784407109547244
 21
-0.5301512986466524
 31
0.0
  0
LINE
  5
3C27
330
1E
100
AcDbEntity
  8
3
100
AcDbLine
 10
3.784407109547244
 20
-0.5596771483021641
 30
0.0
 11
3.784407109547244
 21
-0.5744400731299209
 31
0.0
  0
LINE
  5
3C33
330
1E
100
AcDbEntity
  8
3
100
AcDbLine
 10
21.34342989968011
 20
-0.5626297332677162
 30
0.0
 11
21.34342989968011
 21
-0.5744400731299209
 31
0.0
  0
LINE
  5
3C34
330
1E
100
AcDbEntity
  8
3
100
AcDbLine
 10
3.784407109547244
 20
-0.5744400731299209
 30
0.0
 11
21.34342989968011
 21
-0.5744400731299209
 31
0.0
  0
LINE
  5
3C35
330
1E
100
AcDbEntity
  8
3
100
AcDbLine
 10
21.34342989968011
 20
-0.5153883738188974
 30
0.0
 11
21.25485235071358
 21
-0.5153883738188974
 31
0.0
  0
LINE
  5
3C36
330
1E
100
AcDbEntity
  8
3
100
AcDbLine
 10
21.07474466781496
 20
-0.5153883738188974
 30
0.0
 11
20.89463698491634
 21
-0.5153883738188974
 31
0.0
  0
LINE
  5
3C37
330
1E
100
AcDbEntity
  8
3
100
AcDbLine
 10
20.71748188698327
 20
-0.5153883738188974
 30
0.0
 11
20.53737420408464
 21
-0.5153883738188974
 31
0.0
  0
LINE
  5
3C38
330
1E
100
AcDbEntity
  8
3
100
AcDbLine
 10
20.35726652118602
 20
-0.5153883738188974
 30
0.0
 11
20.18011142325295
 21
-0.5153883738188974
 31
0.0
  0
LINE
  5
3C39
330
1E
100
AcDbEntity
  8
3
100
AcDbLine
 10
20.00000374035433
 20
-0.5153883738188974
 30
0.0
 11
19.8198960574557
 21
-0.5153883738188974
 31
0.0
  0
LINE
  5
3C3A
330
1E
100
AcDbEntity
  8
3
100
AcDbLine
 10
19.64274095952264
 20
-0.5153883738188974
 30
0.0
 11
19.46263327662401
 21
-0.5153883738188974
 31
0.0
  0
LINE
  5
3C3B
330
1E
100
AcDbEntity
  8
3
100
AcDbLine
 10
19.28252559372539
 20
-0.5153883738188974
 30
0.0
 11
19.10241791082677
 21
-0.5153883738188974
 31
0.0
  0
LINE
  5
3C3C
330
1E
100
AcDbEntity
  8
3
100
AcDbLine
 10
18.9252628128937
 20
-0.5153883738188974
 30
0.0
 11
18.74515512999507
 21
-0.5153883738188974
 31
0.0
  0
LINE
  5
3C3D
330
1E
100
AcDbEntity
  8
3
100
AcDbLine
 10
18.56504744709646
 20
-0.5153883738188974
 30
0.0
 11
18.38789234916338
 21
-0.5153883738188974
 31
0.0
  0
LINE
  5
3C3E
330
1E
100
AcDbEntity
  8
3
100
AcDbLine
 10
18.20778466626476
 20
-0.5153883738188974
 30
0.0
 11
18.02767698336614
 21
-0.5153883738188974
 31
0.0
  0
LINE
  5
3C3F
330
1E
100
AcDbEntity
  8
3
100
AcDbLine
 10
17.85052188543306
 20
-0.5153883738188974
 30
0.0
 11
17.67041420253445
 21
-0.5153883738188974
 31
0.0
  0
LINE
  5
3C40
330
1E
100
AcDbEntity
  8
3
100
AcDbLine
 10
17.49030651963582
 20
-0.5153883738188974
 30
0.0
 11
17.31315142170275
 21
-0.5153883738188974
 31
0.0
  0
LINE
  5
3C41
330
1E
100
AcDbEntity
  8
3
100
AcDbLine
 10
17.13304373880413
 20
-0.5153883738188974
 30
0.0
 11
16.9529360559055
 21
-0.5153883738188974
 31
0.0
  0
LINE
  5
3C42
330
1E
100
AcDbEntity
  8
3
100
AcDbLine
 10
16.77578095797244
 20
-0.5153883738188974
 30
0.0
 11
16.59567327507381
 21
-0.5153883738188974
 31
0.0
  0
LINE
  5
3C43
330
1E
100
AcDbEntity
  8
3
100
AcDbLine
 10
16.41556559217519
 20
-0.5153883738188974
 30
0.0
 11
16.23841049424212
 21
-0.5153883738188974
 31
0.0
  0
LINE
  5
3C44
330
1E
100
AcDbEntity
  8
3
100
AcDbLine
 10
16.0583028113435
 20
-0.5153883738188974
 30
0.0
 11
15.87819512844487
 21
-0.5153883738188974
 31
0.0
  0
LINE
  5
3C45
330
1E
100
AcDbEntity
  8
3
100
AcDbLine
 10
15.69808744554626
 20
-0.5153883738188974
 30
0.0
 11
15.52093234761318
 21
-0.5153883738188974
 31
0.0
  0
LINE
  5
3C46
330
1E
100
AcDbEntity
  8
3
100
AcDbLine
 10
15.34082466471456
 20
-0.5153883738188974
 30
0.0
 11
15.16071698181594
 21
-0.5153883738188974
 31
0.0
  0
LINE
  5
3C47
330
1E
100
AcDbEntity
  8
3
100
AcDbLine
 10
14.98356188388287
 20
-0.5153883738188974
 30
0.0
 11
14.80345420098425
 21
-0.5153883738188974
 31
0.0
  0
LINE
  5
3C48
330
1E
100
AcDbEntity
  8
3
100
AcDbLine
 10
14.62334651808562
 20
-0.5153883738188974
 30
0.0
 11
14.44619142015255
 21
-0.5153883738188974
 31
0.0
  0
LINE
  5
3C49
330
1E
100
AcDbEntity
  8
3
100
AcDbLine
 10
14.26608373725393
 20
-0.5153883738188974
 30
0.0
 11
14.08597605435531
 21
-0.5153883738188974
 31
0.0
  0
LINE
  5
3C4A
330
1E
100
AcDbEntity
  8
3
100
AcDbLine
 10
13.90882095642224
 20
-0.5153883738188974
 30
0.0
 11
13.72871327352362
 21
-0.5153883738188974
 31
0.0
  0
LINE
  5
3C4B
330
1E
100
AcDbEntity
  8
3
100
AcDbLine
 10
13.54860559062499
 20
-0.5153883738188974
 30
0.0
 11
13.37145049269192
 21
-0.5153883738188974
 31
0.0
  0
LINE
  5
3C4C
330
1E
100
AcDbEntity
  8
3
100
AcDbLine
 10
13.1913428097933
 20
-0.5153883738188974
 30
0.0
 11
13.01123512689468
 21
-0.5153883738188974
 31
0.0
  0
LINE
  5
3C4D
330
1E
100
AcDbEntity
  8
3
100
AcDbLine
 10
12.83408002896161
 20
-0.5153883738188974
 30
0.0
 11
12.65397234606298
 21
-0.5153883738188974
 31
0.0
  0
LINE
  5
3C4E
330
1E
100
AcDbEntity
  8
3
100
AcDbLine
 10
12.47386466316436
 20
-0.5153883738188974
 30
0.0
 11
12.29375698026574
 21
-0.5153883738188974
 31
0.0
  0
LINE
  5
3C4F
330
1E
100
AcDbEntity
  8
3
100
AcDbLine
 10
12.11660188233267
 20
-0.5153883738188974
 30
0.0
 11
11.93649419943405
 21
-0.5153883738188974
 31
0.0
  0
LINE
  5
3C50
330
1E
100
AcDbEntity
  8
3
100
AcDbLine
 10
11.75638651653543
 20
-0.5153883738188974
 30
0.0
 11
11.57923141860235
 21
-0.5153883738188974
 31
0.0
  0
LINE
  5
3C51
330
1E
100
AcDbEntity
  8
3
100
AcDbLine
 10
11.39912373570373
 20
-0.5153883738188974
 30
0.0
 11
11.21901605280511
 21
-0.5153883738188974
 31
0.0
  0
LINE
  5
3C52
330
1E
100
AcDbEntity
  8
3
100
AcDbLine
 10
11.04186095487204
 20
-0.5153883738188974
 30
0.0
 11
10.86175327197342
 21
-0.5153883738188974
 31
0.0
  0
LINE
  5
3C53
330
1E
100
AcDbEntity
  8
3
100
AcDbLine
 10
10.6816455890748
 20
-0.5153883738188974
 30
0.0
 11
10.50449049114173
 21
-0.5153883738188974
 31
0.0
  0
LINE
  5
3C54
330
1E
100
AcDbEntity
  8
3
100
AcDbLine
 10
10.3243828082431
 20
-0.5153883738188974
 30
0.0
 11
10.14427512534448
 21
-0.5153883738188974
 31
0.0
  0
LINE
  5
3C55
330
1E
100
AcDbEntity
  8
3
100
AcDbLine
 10
9.967120027411414
 20
-0.5153883738188974
 30
0.0
 11
9.787012344512794
 21
-0.5153883738188974
 31
0.0
  0
LINE
  5
3C56
330
1E
100
AcDbEntity
  8
3
100
AcDbLine
 10
9.606904661614171
 20
-0.5153883738188974
 30
0.0
 11
9.429749563681101
 21
-0.5153883738188974
 31
0.0
  0
LINE
  5
3C57
330
1E
100
AcDbEntity
  8
3
100
AcDbLine
 10
9.249641880782478
 20
-0.5153883738188974
 30
0.0
 11
9.069534197883855
 21
-0.5153883738188974
 31
0.0
  0
LINE
  5
3C58
330
1E
100
AcDbEntity
  8
3
100
AcDbLine
 10
8.892379099950785
 20
-0.5153883738188974
 30
0.0
 11
8.712271417052164
 21
-0.5153883738188974
 31
0.0
  0
LINE
  5
3C59
330
1E
100
AcDbEntity
  8
3
100
AcDbLine
 10
8.53216373415354
 20
-0.5153883738188974
 30
0.0
 11
8.352056051254919
 21
-0.5153883738188974
 31
0.0
  0
LINE
  5
3C5A
330
1E
100
AcDbEntity
  8
3
100
AcDbLine
 10
8.174900953321849
 20
-0.5153883738188974
 30
0.0
 11
7.994793270423228
 21
-0.5153883738188974
 31
0.0
  0
LINE
  5
3C5B
330
1E
100
AcDbEntity
  8
3
100
AcDbLine
 10
7.814685587524603
 20
-0.5153883738188974
 30
0.0
 11
7.637530489591533
 21
-0.5153883738188974
 31
0.0
  0
LINE
  5
3C5C
330
1E
100
AcDbEntity
  8
3
100
AcDbLine
 10
7.457422806692912
 20
-0.5153883738188974
 30
0.0
 11
7.277315123794288
 21
-0.5153883738188974
 31
0.0
  0
LINE
  5
3C5D
330
1E
100
AcDbEntity
  8
3
100
AcDbLine
 10
7.100160025861217
 20
-0.5153883738188974
 30
0.0
 11
6.920052342962597
 21
-0.5153883738188974
 31
0.0
  0
LINE
  5
3C5E
330
1E
100
AcDbEntity
  8
3
100
AcDbLine
 10
6.739944660063976
 20
-0.5153883738188974
 30
0.0
 11
6.562789562130902
 21
-0.5153883738188974
 31
0.0
  0
LINE
  5
3C5F
330
1E
100
AcDbEntity
  8
3
100
AcDbLine
 10
6.382681879232281
 20
-0.5153883738188974
 30
0.0
 11
6.20257419633366
 21
-0.5153883738188974
 31
0.0
  0
LINE
  5
3C60
330
1E
100
AcDbEntity
  8
3
100
AcDbLine
 10
6.02541909840059
 20
-0.5153883738188974
 30
0.0
 11
5.845311415501967
 21
-0.5153883738188974
 31
0.0
  0
LINE
  5
3C61
330
1E
100
AcDbEntity
  8
3
100
AcDbLine
 10
5.665203732603346
 20
-0.5153883738188974
 30
0.0
 11
5.488048634670274
 21
-0.5153883738188974
 31
0.0
  0
LINE
  5
3C62
330
1E
100
AcDbEntity
  8
3
100
AcDbLine
 10
5.307940951771653
 20
-0.5153883738188974
 30
0.0
 11
5.127833268873031
 21
-0.5153883738188974
 31
0.0
  0
LINE
  5
3C63
330
1E
100
AcDbEntity
  8
3
100
AcDbLine
 10
4.947725585974408
 20
-0.5153883738188974
 30
0.0
 11
4.770570488041338
 21
-0.5153883738188974
 31
0.0
  0
LINE
  5
3C64
330
1E
100
AcDbEntity
  8
3
100
AcDbLine
 10
4.590462805142715
 20
-0.5153883738188974
 30
0.0
 11
4.410355122244093
 21
-0.5153883738188974
 31
0.0
  0
LINE
  5
3C65
330
1E
100
AcDbEntity
  8
3
100
AcDbLine
 10
4.233200024311022
 20
-0.5153883738188974
 30
0.0
 11
4.053092341412401
 21
-0.5153883738188974
 31
0.0
  0
LINE
  5
3C66
330
1E
100
AcDbEntity
  8
3
100
AcDbLine
 10
3.872984658513779
 20
-0.5153883738188974
 30
0.0
 11
3.784407109547244
 21
-0.5153883738188974
 31
0.0
  0
LINE
  5
3C67
330
1E
100
AcDbEntity
  8
3
100
AcDbLine
 10
21.12493861222933
 20
-0.5153883738188974
 30
0.0
 11
21.12493861222933
 21
-0.5301512986466524
 31
0.0
  0
LINE
  5
3C68
330
1E
100
AcDbEntity
  8
3
100
AcDbLine
 10
21.12493861222933
 20
-0.5596771483021641
 30
0.0
 11
21.12493861222933
 21
-0.5744400731299209
 31
0.0
  0
LINE
  5
3C69
330
1E
100
AcDbEntity
  8
3
100
AcDbLine
 10
4.00289839699803
 20
-0.5744400731299209
 30
0.0
 11
4.00289839699803
 21
-0.5596771483021641
 31
0.0
  0
LINE
  5
3C6A
330
1E
100
AcDbEntity
  8
3
100
AcDbLine
 10
4.00289839699803
 20
-0.5301512986466524
 30
0.0
 11
4.00289839699803
 21
-0.5153883738188974
 31
0.0
  0
LINE
  5
3C6B
330
1E
100
AcDbEntity
  8
3
100
AcDbLine
 10
21.34342989968011
 20
1.084912677509843
 30
0.0
 11
21.34342989968011
 21
1.099675602337598
 31
0.0
  0
LINE
  5
3C6C
330
1E
100
AcDbEntity
  8
3
100
AcDbLine
 10
21.34342989968011
 20
1.129201451993109
 30
0.0
 11
21.34342989968011
 21
1.143964376820867
 31
0.0
  0
LINE
  5
3C7A
330
1E
100
AcDbEntity
  8
3
100
AcDbLine
 10
3.784407109547244
 20
1.099675602337598
 30
0.0
 11
3.784407109547244
 21
1.084912677509843
 31
0.0
  0
LINE
  5
3C7B
330
1E
100
AcDbEntity
  8
3
100
AcDbLine
 10
21.34342989968011
 20
1.143964376820867
 30
0.0
 11
3.784407109547244
 21
1.143964376820867
 31
0.0
  0
LINE
  5
3C7C
330
1E
100
AcDbEntity
  8
3
100
AcDbLine
 10
3.784407109547244
 20
1.084912677509843
 30
0.0
 11
3.872984658513779
 21
1.084912677509843
 31
0.0
  0
LINE
  5
3C7D
330
1E
100
AcDbEntity
  8
3
100
AcDbLine
 10
4.053092341412401
 20
1.084912677509843
 30
0.0
 11
4.233200024311022
 21
1.084912677509843
 31
0.0
  0
LINE
  5
3C7E
330
1E
100
AcDbEntity
  8
3
100
AcDbLine
 10
4.410355122244093
 20
1.084912677509843
 30
0.0
 11
4.590462805142715
 21
1.084912677509843
 31
0.0
  0
LINE
  5
3C7F
330
1E
100
AcDbEntity
  8
3
100
AcDbLine
 10
4.770570488041338
 20
1.084912677509843
 30
0.0
 11
4.947725585974408
 21
1.084912677509843
 31
0.0
  0
LINE
  5
3C80
330
1E
100
AcDbEntity
  8
3
100
AcDbLine
 10
5.127833268873031
 20
1.084912677509843
 30
0.0
 11
5.307940951771653
 21
1.084912677509843
 31
0.0
  0
LINE
  5
3C81
330
1E
100
AcDbEntity
  8
3
100
AcDbLine
 10
5.488048634670274
 20
1.084912677509843
 30
0.0
 11
5.665203732603346
 21
1.084912677509843
 31
0.0
  0
LINE
  5
3C82
330
1E
100
AcDbEntity
  8
3
100
AcDbLine
 10
5.845311415501967
 20
1.084912677509843
 30
0.0
 11
6.02541909840059
 21
1.084912677509843
 31
0.0
  0
LINE
  5
3C83
330
1E
100
AcDbEntity
  8
3
100
AcDbLine
 10
6.20257419633366
 20
1.084912677509843
 30
0.0
 11
6.382681879232281
 21
1.084912677509843
 31
0.0
  0
LINE
  5
3C84
330
1E
100
AcDbEntity
  8
3
100
AcDbLine
 10
6.562789562130902
 20
1.084912677509843
 30
0.0
 11
6.739944660063976
 21
1.084912677509843
 31
0.0
  0
LINE
  5
3C85
330
1E
100
AcDbEntity
  8
3
100
AcDbLine
 10
6.920052342962597
 20
1.084912677509843
 30
0.0
 11
7.100160025861217
 21
1.084912677509843
 31
0.0
  0
LINE
  5
3C86
330
1E
100
AcDbEntity
  8
3
100
AcDbLine
 10
7.277315123794288
 20
1.084912677509843
 30
0.0
 11
7.457422806692912
 21
1.084912677509843
 31
0.0
  0
LINE
  5
3C87
330
1E
100
AcDbEntity
  8
3
100
AcDbLine
 10
7.637530489591533
 20
1.084912677509843
 30
0.0
 11
7.814685587524603
 21
1.084912677509843
 31
0.0
  0
LINE
  5
3C88
330
1E
100
AcDbEntity
  8
3
100
AcDbLine
 10
7.994793270423228
 20
1.084912677509843
 30
0.0
 11
8.174900953321849
 21
1.084912677509843
 31
0.0
  0
LINE
  5
3C89
330
1E
100
AcDbEntity
  8
3
100
AcDbLine
 10
8.352056051254919
 20
1.084912677509843
 30
0.0
 11
8.53216373415354
 21
1.084912677509843
 31
0.0
  0
LINE
  5
3C8A
330
1E
100
AcDbEntity
  8
3
100
AcDbLine
 10
8.712271417052164
 20
1.084912677509843
 30
0.0
 11
8.892379099950785
 21
1.084912677509843
 31
0.0
  0
LINE
  5
3C8B
330
1E
100
AcDbEntity
  8
3
100
AcDbLine
 10
9.069534197883855
 20
1.084912677509843
 30
0.0
 11
9.249641880782478
 21
1.084912677509843
 31
0.0
  0
LINE
  5
3C8C
330
1E
100
AcDbEntity
  8
3
100
AcDbLine
 10
9.429749563681101
 20
1.084912677509843
 30
0.0
 11
9.606904661614171
 21
1.084912677509843
 31
0.0
  0
LINE
  5
3C8D
330
1E
100
AcDbEntity
  8
3
100
AcDbLine
 10
9.787012344512794
 20
1.084912677509843
 30
0.0
 11
9.967120027411414
 21
1.084912677509843
 31
0.0
  0
LINE
  5
3C8E
330
1E
100
AcDbEntity
  8
3
100
AcDbLine
 10
10.14427512534448
 20
1.084912677509843
 30
0.0
 11
10.3243828082431
 21
1.084912677509843
 31
0.0
  0
LINE
  5
3C8F
330
1E
100
AcDbEntity
  8
3
100
AcDbLine
 10
10.50449049114173
 20
1.084912677509843
 30
0.0
 11
10.6816455890748
 21
1.084912677509843
 31
0.0
  0
LINE
  5
3C90
330
1E
100
AcDbEntity
  8
3
100
AcDbLine
 10
10.86175327197342
 20
1.084912677509843
 30
0.0
 11
11.04186095487204
 21
1.084912677509843
 31
0.0
  0
LINE
  5
3C91
330
1E
100
AcDbEntity
  8
3
100
AcDbLine
 10
11.21901605280511
 20
1.084912677509843
 30
0.0
 11
11.39912373570373
 21
1.084912677509843
 31
0.0
  0
LINE
  5
3C92
330
1E
100
AcDbEntity
  8
3
100
AcDbLine
 10
11.57923141860235
 20
1.084912677509843
 30
0.0
 11
11.75638651653543
 21
1.084912677509843
 31
0.0
  0
LINE
  5
3C93
330
1E
100
AcDbEntity
  8
3
100
AcDbLine
 10
11.93649419943405
 20
1.084912677509843
 30
0.0
 11
12.11660188233267
 21
1.084912677509843
 31
0.0
  0
LINE
  5
3C94
330
1E
100
AcDbEntity
  8
3
100
AcDbLine
 10
12.29375698026574
 20
1.084912677509843
 30
0.0
 11
12.47386466316436
 21
1.084912677509843
 31
0.0
  0
LINE
  5
3C95
330
1E
100
AcDbEntity
  8
3
100
AcDbLine
 10
12.65397234606298
 20
1.084912677509843
 30
0.0
 11
12.83408002896161
 21
1.084912677509843
 31
0.0
  0
LINE
  5
3C96
330
1E
100
AcDbEntity
  8
3
100
AcDbLine
 10
13.01123512689468
 20
1.084912677509843
 30
0.0
 11
13.1913428097933
 21
1.084912677509843
 31
0.0
  0
LINE
  5
3C97
330
1E
100
AcDbEntity
  8
3
100
AcDbLine
 10
13.37145049269192
 20
1.084912677509843
 30
0.0
 11
13.54860559062499
 21
1.084912677509843
 31
0.0
  0
LINE
  5
3C98
330
1E
100
AcDbEntity
  8
3
100
AcDbLine
 10
13.72871327352362
 20
1.084912677509843
 30
0.0
 11
13.90882095642224
 21
1.084912677509843
 31
0.0
  0
LINE
  5
3C99
330
1E
100
AcDbEntity
  8
3
100
AcDbLine
 10
14.08597605435531
 20
1.084912677509843
 30
0.0
 11
14.26608373725393
 21
1.084912677509843
 31
0.0
  0
LINE
  5
3C9A
330
1E
100
AcDbEntity
  8
3
100
AcDbLine
 10
14.44619142015255
 20
1.084912677509843
 30
0.0
 11
14.62334651808562
 21
1.084912677509843
 31
0.0
  0
LINE
  5
3C9B
330
1E
100
AcDbEntity
  8
3
100
AcDbLine
 10
14.80345420098425
 20
1.084912677509843
 30
0.0
 11
14.98356188388287
 21
1.084912677509843
 31
0.0
  0
LINE
  5
3C9C
330
1E
100
AcDbEntity
  8
3
100
AcDbLine
 10
15.16071698181594
 20
1.084912677509843
 30
0.0
 11
15.34082466471456
 21
1.084912677509843
 31
0.0
  0
LINE
  5
3C9D
330
1E
100
AcDbEntity
  8
3
100
AcDbLine
 10
15.52093234761318
 20
1.084912677509843
 30
0.0
 11
15.69808744554626
 21
1.084912677509843
 31
0.0
  0
LINE
  5
3C9E
330
1E
100
AcDbEntity
  8
3
100
AcDbLine
 10
15.87819512844487
 20
1.084912677509843
 30
0.0
 11
16.0583028113435
 21
1.084912677509843
 31
0.0
  0
LINE
  5
3C9F
330
1E
100
AcDbEntity
  8
3
100
AcDbLine
 10
16.23841049424212
 20
1.084912677509843
 30
0.0
 11
16.41556559217519
 21
1.084912677509843
 31
0.0
  0
LINE
  5
3CA0
330
1E
100
AcDbEntity
  8
3
100
AcDbLine
 10
16.59567327507381
 20
1.084912677509843
 30
0.0
 11
16.77578095797244
 21
1.084912677509843
 31
0.0
  0
LINE
  5
3CA1
330
1E
100
AcDbEntity
  8
3
100
AcDbLine
 10
16.9529360559055
 20
1.084912677509843
 30
0.0
 11
17.13304373880413
 21
1.084912677509843
 31
0.0
  0
LINE
  5
3CA2
330
1E
100
AcDbEntity
  8
3
100
AcDbLine
 10
17.31315142170275
 20
1.084912677509843
 30
0.0
 11
17.49030651963582
 21
1.084912677509843
 31
0.0
  0
LINE
  5
3CA3
330
1E
100
AcDbEntity
  8
3
100
AcDbLine
 10
17.67041420253445
 20
1.084912677509843
 30
0.0
 11
17.85052188543306
 21
1.084912677509843
 31
0.0
  0
LINE
  5
3CA4
330
1E
100
AcDbEntity
  8
3
100
AcDbLine
 10
18.02767698336614
 20
1.084912677509843
 30
0.0
 11
18.20778466626476
 21
1.084912677509843
 31
0.0
  0
LINE
  5
3CA5
330
1E
100
AcDbEntity
  8
3
100
AcDbLine
 10
18.38789234916338
 20
1.084912677509843
 30
0.0
 11
18.56504744709646
 21
1.084912677509843
 31
0.0
  0
LINE
  5
3CA6
330
1E
100
AcDbEntity
  8
3
100
AcDbLine
 10
18.74515512999507
 20
1.084912677509843
 30
0.0
 11
18.9252628128937
 21
1.084912677509843
 31
0.0
  0
LINE
  5
3CA7
330
1E
100
AcDbEntity
  8
3
100
AcDbLine
 10
19.10241791082677
 20
1.084912677509843
 30
0.0
 11
19.28252559372539
 21
1.084912677509843
 31
0.0
  0
LINE
  5
3CA8
330
1E
100
AcDbEntity
  8
3
100
AcDbLine
 10
19.46263327662401
 20
1.084912677509843
 30
0.0
 11
19.64274095952264
 21
1.084912677509843
 31
0.0
  0
LINE
  5
3CA9
330
1E
100
AcDbEntity
  8
3
100
AcDbLine
 10
19.8198960574557
 20
1.084912677509843
 30
0.0
 11
20.00000374035433
 21
1.084912677509843
 31
0.0
  0
LINE
  5
3CAA
330
1E
100
AcDbEntity
  8
3
100
AcDbLine
 10
20.18011142325295
 20
1.084912677509843
 30
0.0
 11
20.35726652118602
 21
1.084912677509843
 31
0.0
  0
LINE
  5
3CAB
330
1E
100
AcDbEntity
  8
3
100
AcDbLine
 10
20.53737420408464
 20
1.084912677509843
 30
0.0
 11
20.71748188698327
 21
1.084912677509843
 31
0.0
  0
LINE
  5
3CAC
330
1E
100
AcDbEntity
  8
3
100
AcDbLine
 10
20.89463698491634
 20
1.084912677509843
 30
0.0
 11
21.07474466781496
 21
1.084912677509843
 31
0.0
  0
LINE
  5
3CAD
330
1E
100
AcDbEntity
  8
3
100
AcDbLine
 10
21.25485235071358
 20
1.084912677509843
 30
0.0
 11
21.34342989968011
 21
1.084912677509843
 31
0.0
  0
LINE
  5
3CAE
330
1E
100
AcDbEntity
  8
3
100
AcDbLine
 10
4.00289839699803
 20
1.084912677509843
 30
0.0
 11
4.00289839699803
 21
1.099675602337598
 31
0.0
  0
LINE
  5
3CAF
330
1E
100
AcDbEntity
  8
3
100
AcDbLine
 10
4.00289839699803
 20
1.129201451993109
 30
0.0
 11
4.00289839699803
 21
1.143964376820867
 31
0.0
  0
LINE
  5
3CB0
330
1E
100
AcDbEntity
  8
3
100
AcDbLine
 10
21.12493861222933
 20
1.143964376820867
 30
0.0
 11
21.12493861222933
 21
1.129201451993109
 31
0.0
  0
LINE
  5
3CB1
330
1E
100
AcDbEntity
  8
3
100
AcDbLine
 10
21.12493861222933
 20
1.099675602337598
 30
0.0
 11
21.12493861222933
 21
1.084912677509843
 31
0.0
  0
LINE
  5
3CB2
330
1E
100
AcDbEntity
  8
3
100
AcDbLine
 10
3.940894112721455
 20
-0.5744400731299209
 30
0.0
 11
3.940894112721455
 21
-0.5596771483021641
 31
0.0
  0
LINE
  5
3CB3
330
1E
100
AcDbEntity
  8
3
100
AcDbLine
 10
3.940894112721455
 20
-0.5301512986466524
 30
0.0
 11
3.940894112721455
 21
-0.5153883738188974
 31
0.0
  0
LINE
  5
3CB4
330
1E
100
AcDbEntity
  8
3
100
AcDbLine
 10
3.875937243479329
 20
-0.5153883738188974
 30
0.0
 11
3.875937243479329
 21
-0.5301512986466524
 31
0.0
  0
LINE
  5
3CB5
330
1E
100
AcDbEntity
  8
3
100
AcDbLine
 10
3.875937243479329
 20
-0.5596771483021641
 30
0.0
 11
3.875937243479329
 21
-0.5744400731299209
 31
0.0
  0
LINE
  5
3CB6
330
1E
100
AcDbEntity
  8
3
100
AcDbLine
 10
3.846411393823818
 20
-0.5744400731299209
 30
0.0
 11
3.846411393823818
 21
-0.5596771483021641
 31
0.0
  0
LINE
  5
3CB7
330
1E
100
AcDbEntity
  8
3
100
AcDbLine
 10
3.846411393823818
 20
-0.5301512986466524
 30
0.0
 11
3.846411393823818
 21
-0.5153883738188974
 31
0.0
  0
LINE
  5
3CB8
330
1E
100
AcDbEntity
  8
3
100
AcDbLine
 10
3.940894112721455
 20
1.084912677509843
 30
0.0
 11
3.940894112721455
 21
1.099675602337598
 31
0.0
  0
LINE
  5
3CB9
330
1E
100
AcDbEntity
  8
3
100
AcDbLine
 10
3.940894112721455
 20
1.129201451993109
 30
0.0
 11
3.940894112721455
 21
1.143964376820867
 31
0.0
  0
LINE
  5
3CBA
330
1E
100
AcDbEntity
  8
3
100
AcDbLine
 10
3.875937243479329
 20
1.143964376820867
 30
0.0
 11
3.875937243479329
 21
1.129201451993109
 31
0.0
  0
LINE
  5
3CBB
330
1E
100
AcDbEntity
  8
3
100
AcDbLine
 10
3.875937243479329
 20
1.099675602337598
 30
0.0
 11
3.875937243479329
 21
1.084912677509843
 31
0.0
  0
LINE
  5
3CBC
330
1E
100
AcDbEntity
  8
3
100
AcDbLine
 10
3.846411393823818
 20
1.084912677509843
 30
0.0
 11
3.846411393823818
 21
1.099675602337598
 31
0.0
  0
LINE
  5
3CBD
330
1E
100
AcDbEntity
  8
3
100
AcDbLine
 10
3.846411393823818
 20
1.129201451993109
 30
0.0
 11
3.846411393823818
 21
1.143964376820867
 31
0.0
  0
LINE
  5
3CBE
330
1E
100
AcDbEntity
  8
3
100
AcDbLine
 10
21.28142561540354
 20
-0.5153883738188974
 30
0.0
 11
21.28142561540354
 21
-0.5301512986466524
 31
0.0
  0
LINE
  5
3CBF
330
1E
100
AcDbEntity
  8
3
100
AcDbLine
 10
21.28142561540354
 20
-0.5596771483021641
 30
0.0
 11
21.28142561540354
 21
-0.5744400731299209
 31
0.0
  0
LINE
  5
3CC0
330
1E
100
AcDbEntity
  8
3
100
AcDbLine
 10
21.25189976574803
 20
-0.5744400731299209
 30
0.0
 11
21.25189976574803
 21
-0.5596771483021641
 31
0.0
  0
LINE
  5
3CC1
330
1E
100
AcDbEntity
  8
3
100
AcDbLine
 10
21.25189976574803
 20
-0.5301512986466524
 30
0.0
 11
21.25189976574803
 21
-0.5153883738188974
 31
0.0
  0
LINE
  5
3CC2
330
1E
100
AcDbEntity
  8
3
100
AcDbLine
 10
21.18989548147145
 20
-0.5153883738188974
 30
0.0
 11
21.18989548147145
 21
-0.5301512986466524
 31
0.0
  0
LINE
  5
3CC3
330
1E
100
AcDbEntity
  8
3
100
AcDbLine
 10
21.18989548147145
 20
-0.5596771483021641
 30
0.0
 11
21.18989548147145
 21
-0.5744400731299209
 31
0.0
  0
LINE
  5
3CC4
330
1E
100
AcDbEntity
  8
3
100
AcDbLine
 10
21.28142561540354
 20
1.143964376820867
 30
0.0
 11
21.28142561540354
 21
1.129201451993109
 31
0.0
  0
LINE
  5
3CC5
330
1E
100
AcDbEntity
  8
3
100
AcDbLine
 10
21.28142561540354
 20
1.099675602337598
 30
0.0
 11
21.28142561540354
 21
1.084912677509843
 31
0.0
  0
LINE
  5
3CC6
330
1E
100
AcDbEntity
  8
3
100
AcDbLine
 10
21.25189976574803
 20
1.084912677509843
 30
0.0
 11
21.25189976574803
 21
1.099675602337598
 31
0.0
  0
LINE
  5
3CC7
330
1E
100
AcDbEntity
  8
3
100
AcDbLine
 10
21.25189976574803
 20
1.129201451993109
 30
0.0
 11
21.25189976574803
 21
1.143964376820867
 31
0.0
  0
LINE
  5
3CC8
330
1E
100
AcDbEntity
  8
3
100
AcDbLine
 10
21.18989548147145
 20
1.143964376820867
 30
0.0
 11
21.18989548147145
 21
1.129201451993109
 31
0.0
  0
LINE
  5
3CC9
330
1E
100
AcDbEntity
  8
3
100
AcDbLine
 10
21.18989548147145
 20
1.099675602337598
 30
0.0
 11
21.18989548147145
 21
1.084912677509843
 31
0.0
  0
LINE
  5
3CCA
330
1E
100
AcDbEntity
  8
3
100
AcDbLine
 10
21.9191839679626
 20
7.152474781717518
 30
0.0
 11
21.9191839679626
 21
7.167237706545276
 31
0.0
  0
LINE
  5
3CCB
330
1E
100
AcDbEntity
  8
3
100
AcDbLine
 10
21.9191839679626
 20
7.196763556200787
 30
0.0
 11
21.9191839679626
 21
7.211526481028545
 31
0.0
  0
LINE
  5
3CCC
330
1E
100
AcDbEntity
  8
3
100
AcDbLine
 10
3.610204596579724
 20
7.152474781717518
 30
0.0
 11
3.610204596579724
 21
7.167237706545276
 31
0.0
  0
LINE
  5
3CCD
330
1E
100
AcDbEntity
  8
3
100
AcDbLine
 10
3.610204596579724
 20
7.196763556200787
 30
0.0
 11
3.610204596579724
 21
7.211526481028545
 31
0.0
  0
LINE
  5
3CCE
330
1E
100
AcDbEntity
  8
3
100
AcDbLine
 10
3.208653041264763
 20
7.211526481028545
 30
0.0
 11
3.208653041264763
 21
7.196763556200787
 31
0.0
  0
LINE
  5
3CCF
330
1E
100
AcDbEntity
  8
3
100
AcDbLine
 10
3.208653041264763
 20
7.167237706545276
 30
0.0
 11
3.208653041264763
 21
7.152474781717518
 31
0.0
  0
LINE
  5
3CD0
330
1E
100
AcDbEntity
  8
3
100
AcDbLine
 10
21.51763241264764
 20
7.211526481028545
 30
0.0
 11
21.51763241264764
 21
7.196763556200787
 31
0.0
  0
LINE
  5
3CD1
330
1E
100
AcDbEntity
  8
3
100
AcDbLine
 10
21.51763241264764
 20
7.167237706545276
 30
0.0
 11
21.51763241264764
 21
7.152474781717518
 31
0.0
  0
LINE
  5
3CD2
330
1E
100
AcDbEntity
  8
3
100
AcDbLine
 10
3.610204596579724
 20
7.152474781717518
 30
0.0
 11
3.610204596579724
 21
7.167237706545276
 31
0.0
  0
LINE
  5
3CD3
330
1E
100
AcDbEntity
  8
3
100
AcDbLine
 10
3.610204596579724
 20
7.196763556200787
 30
0.0
 11
3.610204596579724
 21
7.211526481028545
 31
0.0
  0
LINE
  5
3CD4
330
1E
100
AcDbEntity
  8
3
100
AcDbLine
 10
21.51763241264764
 20
7.211526481028545
 30
0.0
 11
21.51763241264764
 21
7.196763556200787
 31
0.0
  0
LINE
  5
3CD5
330
1E
100
AcDbEntity
  8
3
100
AcDbLine
 10
21.51763241264764
 20
7.167237706545276
 30
0.0
 11
21.51763241264764
 21
7.152474781717518
 31
0.0
  0
LINE
  5
3CD6
330
1E
100
AcDbEntity
  8
3
100
AcDbLine
 10
20.86215855029527
 20
7.211526481028545
 30
0.0
 11
20.86215855029527
 21
7.196763556200787
 31
0.0
  0
LINE
  5
3CD7
330
1E
100
AcDbEntity
  8
3
100
AcDbLine
 10
20.86215855029527
 20
7.167237706545276
 30
0.0
 11
20.86215855029527
 21
7.152474781717518
 31
0.0
  0
LINE
  5
3CD8
330
1E
100
AcDbEntity
  8
3
100
AcDbLine
 10
21.11608085733267
 20
7.152474781717518
 30
0.0
 11
21.11608085733267
 21
7.167237706545276
 31
0.0
  0
LINE
  5
3CD9
330
1E
100
AcDbEntity
  8
3
100
AcDbLine
 10
21.11608085733267
 20
7.196763556200787
 30
0.0
 11
21.11608085733267
 21
7.211526481028545
 31
0.0
  0
LINE
  5
3CDA
330
1E
100
AcDbEntity
  8
3
100
AcDbLine
 10
8.325482786564959
 20
7.211526481028545
 30
0.0
 11
8.325482786564959
 21
7.196763556200787
 31
0.0
  0
LINE
  5
3CDB
330
1E
100
AcDbEntity
  8
3
100
AcDbLine
 10
8.325482786564959
 20
7.167237706545276
 30
0.0
 11
8.325482786564959
 21
7.152474781717518
 31
0.0
  0
LINE
  5
3CDC
330
1E
100
AcDbEntity
  8
3
100
AcDbLine
 10
8.576452508636808
 20
7.152474781717518
 30
0.0
 11
8.576452508636808
 21
7.167237706545276
 31
0.0
  0
LINE
  5
3CDD
330
1E
100
AcDbEntity
  8
3
100
AcDbLine
 10
8.576452508636808
 20
7.196763556200787
 30
0.0
 11
8.576452508636808
 21
7.211526481028545
 31
0.0
  0
LINE
  5
3CDE
330
1E
100
AcDbEntity
  8
3
100
AcDbLine
 10
16.9470308859744
 20
7.211526481028545
 30
0.0
 11
16.9470308859744
 21
7.196763556200787
 31
0.0
  0
LINE
  5
3CDF
330
1E
100
AcDbEntity
  8
3
100
AcDbLine
 10
16.9470308859744
 20
7.167237706545276
 30
0.0
 11
16.9470308859744
 21
7.152474781717518
 31
0.0
  0
LINE
  5
3CE0
330
1E
100
AcDbEntity
  8
3
100
AcDbLine
 10
17.2009531930118
 20
7.152474781717518
 30
0.0
 11
17.2009531930118
 21
7.167237706545276
 31
0.0
  0
LINE
  5
3CE1
330
1E
100
AcDbEntity
  8
3
100
AcDbLine
 10
17.2009531930118
 20
7.196763556200787
 30
0.0
 11
17.2009531930118
 21
7.211526481028545
 31
0.0
  0
LINE
  5
3CE2
330
1E
100
AcDbEntity
  8
3
100
AcDbLine
 10
12.23765786592027
 20
7.211526481028545
 30
0.0
 11
12.23765786592027
 21
7.196763556200787
 31
0.0
  0
LINE
  5
3CE3
330
1E
100
AcDbEntity
  8
3
100
AcDbLine
 10
12.23765786592027
 20
7.167237706545276
 30
0.0
 11
12.23765786592027
 21
7.152474781717518
 31
0.0
  0
LINE
  5
3CE4
330
1E
100
AcDbEntity
  8
3
100
AcDbLine
 10
12.49158017295767
 20
7.152474781717518
 30
0.0
 11
12.49158017295767
 21
7.167237706545276
 31
0.0
  0
LINE
  5
3CE5
330
1E
100
AcDbEntity
  8
3
100
AcDbLine
 10
12.49158017295767
 20
7.196763556200787
 30
0.0
 11
12.49158017295767
 21
7.211526481028545
 31
0.0
  0
LINE
  5
3CE6
330
1E
100
AcDbEntity
  8
3
100
AcDbLine
 10
16.55138450059054
 20
7.211526481028545
 30
0.0
 11
16.55138450059054
 21
7.196763556200787
 31
0.0
  0
LINE
  5
3CE7
330
1E
100
AcDbEntity
  8
3
100
AcDbLine
 10
16.55138450059054
 20
7.167237706545276
 30
0.0
 11
16.55138450059054
 21
7.152474781717518
 31
0.0
  0
LINE
  5
3CE8
330
1E
100
AcDbEntity
  8
3
100
AcDbLine
 10
16.8023542226624
 20
7.152474781717518
 30
0.0
 11
16.8023542226624
 21
7.167237706545276
 31
0.0
  0
LINE
  5
3CE9
330
1E
100
AcDbEntity
  8
3
100
AcDbLine
 10
16.8023542226624
 20
7.196763556200787
 30
0.0
 11
16.8023542226624
 21
7.211526481028545
 31
0.0
  0
LINE
  5
3CEA
330
1E
100
AcDbEntity
  8
3
100
AcDbLine
 10
4.011756151894684
 20
7.211526481028545
 30
0.0
 11
4.011756151894684
 21
7.196763556200787
 31
0.0
  0
LINE
  5
3CEB
330
1E
100
AcDbEntity
  8
3
100
AcDbLine
 10
4.011756151894684
 20
7.167237706545276
 30
0.0
 11
4.011756151894684
 21
7.152474781717518
 31
0.0
  0
LINE
  5
3CEC
330
1E
100
AcDbEntity
  8
3
100
AcDbLine
 10
4.265678458932086
 20
7.152474781717518
 30
0.0
 11
4.265678458932086
 21
7.167237706545276
 31
0.0
  0
LINE
  5
3CED
330
1E
100
AcDbEntity
  8
3
100
AcDbLine
 10
4.265678458932086
 20
7.196763556200787
 30
0.0
 11
4.265678458932086
 21
7.211526481028545
 31
0.0
  0
LINE
  5
3CEE
330
1E
100
AcDbEntity
  8
3
100
AcDbLine
 10
7.92688381621555
 20
7.211526481028545
 30
0.0
 11
7.92688381621555
 21
7.196763556200787
 31
0.0
  0
LINE
  5
3CEF
330
1E
100
AcDbEntity
  8
3
100
AcDbLine
 10
7.92688381621555
 20
7.167237706545276
 30
0.0
 11
7.92688381621555
 21
7.152474781717518
 31
0.0
  0
LINE
  5
3CF0
330
1E
100
AcDbEntity
  8
3
100
AcDbLine
 10
8.180806123252949
 20
7.152474781717518
 30
0.0
 11
8.180806123252949
 21
7.167237706545276
 31
0.0
  0
LINE
  5
3CF1
330
1E
100
AcDbEntity
  8
3
100
AcDbLine
 10
8.180806123252949
 20
7.196763556200787
 30
0.0
 11
8.180806123252949
 21
7.211526481028545
 31
0.0
  0
LINE
  5
3CF2
330
1E
100
AcDbEntity
  8
3
100
AcDbLine
 10
12.63625683626968
 20
7.211526481028545
 30
0.0
 11
12.63625683626968
 21
7.196763556200787
 31
0.0
  0
LINE
  5
3CF3
330
1E
100
AcDbEntity
  8
3
100
AcDbLine
 10
12.63625683626968
 20
7.167237706545276
 30
0.0
 11
12.63625683626968
 21
7.152474781717518
 31
0.0
  0
LINE
  5
3CF4
330
1E
100
AcDbEntity
  8
3
100
AcDbLine
 10
12.89017914330708
 20
7.152474781717518
 30
0.0
 11
12.89017914330708
 21
7.167237706545276
 31
0.0
  0
LINE
  5
3CF5
330
1E
100
AcDbEntity
  8
3
100
AcDbLine
 10
12.89017914330708
 20
7.196763556200787
 30
0.0
 11
12.89017914330708
 21
7.211526481028545
 31
0.0
  0
LINE
  5
3CF6
330
1E
100
AcDbEntity
  8
3
100
AcDbLine
 10
21.51763241264764
 20
7.211526481028545
 30
0.0
 11
21.51763241264764
 21
7.196763556200787
 31
0.0
  0
LINE
  5
3CF7
330
1E
100
AcDbEntity
  8
3
100
AcDbLine
 10
21.51763241264764
 20
7.167237706545276
 30
0.0
 11
21.51763241264764
 21
7.152474781717518
 31
0.0
  0
LINE
  5
3CF8
330
1E
100
AcDbEntity
  8
3
100
AcDbLine
 10
3.208653041264763
 20
7.211526481028545
 30
0.0
 11
3.208653041264763
 21
7.196763556200787
 31
0.0
  0
LINE
  5
3CF9
330
1E
100
AcDbEntity
  8
3
100
AcDbLine
 10
3.208653041264763
 20
7.167237706545276
 30
0.0
 11
3.208653041264763
 21
7.152474781717518
 31
0.0
  0
LINE
  5
3CFA
330
1E
100
AcDbEntity
  8
3
100
AcDbLine
 10
3.610204596579724
 20
7.152474781717518
 30
0.0
 11
3.610204596579724
 21
7.167237706545276
 31
0.0
  0
LINE
  5
3CFB
330
1E
100
AcDbEntity
  8
3
100
AcDbLine
 10
3.610204596579724
 20
7.196763556200787
 30
0.0
 11
3.610204596579724
 21
7.211526481028545
 31
0.0
  0
LINE
  5
3CFC
330
1E
100
AcDbEntity
  8
3
100
AcDbLine
 10
21.9191839679626
 20
7.152474781717518
 30
0.0
 11
21.9191839679626
 21
7.167237706545276
 31
0.0
  0
LINE
  5
3CFD
330
1E
100
AcDbEntity
  8
3
100
AcDbLine
 10
21.9191839679626
 20
7.196763556200787
 30
0.0
 11
21.9191839679626
 21
7.211526481028545
 31
0.0
  0
LINE
  5
3CFE
330
1E
100
AcDbEntity
  8
3
100
AcDbLine
 10
21.37295574933563
 20
7.152474781717518
 30
0.0
 11
22.01366668686023
 21
7.152474781717518
 31
0.0
  0
LINE
  5
3CFF
330
1E
100
AcDbEntity
  8
3
100
AcDbLine
 10
22.01366668686023
 20
7.152474781717518
 30
0.0
 11
21.37295574933563
 21
7.152474781717518
 31
0.0
  0
LINE
  5
3D00
330
1E
100
AcDbEntity
  8
3
100
AcDbLine
 10
3.754881259891732
 20
7.152474781717518
 30
0.0
 11
3.114170322367125
 21
7.152474781717518
 31
0.0
  0
LINE
  5
3D01
330
1E
100
AcDbEntity
  8
3
100
AcDbLine
 10
3.114170322367125
 20
7.152474781717518
 30
0.0
 11
3.754881259891732
 21
7.152474781717518
 31
0.0
  0
LINE
  5
3D02
330
1E
100
AcDbEntity
  8
3
100
AcDbLine
 10
3.063976377952756
 20
7.152474781717518
 30
0.0
 11
3.063976377952756
 21
7.211526481028545
 31
0.0
  0
LINE
  5
3D0A
330
1E
100
AcDbEntity
  8
3
100
AcDbLine
 10
3.12598066222933
 20
7.152474781717518
 30
0.0
 11
3.12598066222933
 21
7.167237706545276
 31
0.0
  0
LINE
  5
3D0B
330
1E
100
AcDbEntity
  8
3
100
AcDbLine
 10
3.12598066222933
 20
7.196763556200787
 30
0.0
 11
3.12598066222933
 21
7.211526481028545
 31
0.0
  0
LINE
  5
3D18
330
1E
100
AcDbEntity
  8
3
100
AcDbLine
 10
3.784407109547244
 20
7.152474781717518
 30
0.0
 11
21.34342989968011
 21
7.152474781717518
 31
0.0
  0
LINE
  5
3D20
330
1E
100
AcDbEntity
  8
3
100
AcDbLine
 10
3.12598066222933
 20
7.152474781717518
 30
0.0
 11
3.663351125959645
 21
7.152474781717518
 31
0.0
  0
LINE
  5
3D26
330
1E
100
AcDbEntity
  8
3
100
AcDbLine
 10
22.00480893196358
 20
7.211526481028545
 30
0.0
 11
22.00480893196358
 21
7.196763556200787
 31
0.0
  0
LINE
  5
3D27
330
1E
100
AcDbEntity
  8
3
100
AcDbLine
 10
22.00480893196358
 20
7.167237706545276
 30
0.0
 11
22.00480893196358
 21
7.152474781717518
 31
0.0
  0
LINE
  5
3D2D
330
1E
100
AcDbEntity
  8
3
100
AcDbLine
 10
3.663351125959645
 20
7.211526481028545
 30
0.0
 11
3.663351125959645
 21
7.152474781717518
 31
0.0
  0
LINE
  5
3D3D
330
1E
100
AcDbEntity
  8
3
100
AcDbLine
 10
21.34342989968011
 20
7.211526481028545
 30
0.0
 11
21.25485235071358
 21
7.211526481028545
 31
0.0
  0
LINE
  5
3D3E
330
1E
100
AcDbEntity
  8
3
100
AcDbLine
 10
21.07474466781496
 20
7.211526481028545
 30
0.0
 11
20.89463698491634
 21
7.211526481028545
 31
0.0
  0
LINE
  5
3D3F
330
1E
100
AcDbEntity
  8
3
100
AcDbLine
 10
20.71748188698327
 20
7.211526481028545
 30
0.0
 11
20.53737420408464
 21
7.211526481028545
 31
0.0
  0
LINE
  5
3D40
330
1E
100
AcDbEntity
  8
3
100
AcDbLine
 10
20.35726652118602
 20
7.211526481028545
 30
0.0
 11
20.18011142325295
 21
7.211526481028545
 31
0.0
  0
LINE
  5
3D41
330
1E
100
AcDbEntity
  8
3
100
AcDbLine
 10
20.00000374035433
 20
7.211526481028545
 30
0.0
 11
19.8198960574557
 21
7.211526481028545
 31
0.0
  0
LINE
  5
3D42
330
1E
100
AcDbEntity
  8
3
100
AcDbLine
 10
19.64274095952264
 20
7.211526481028545
 30
0.0
 11
19.46263327662401
 21
7.211526481028545
 31
0.0
  0
LINE
  5
3D43
330
1E
100
AcDbEntity
  8
3
100
AcDbLine
 10
19.28252559372539
 20
7.211526481028545
 30
0.0
 11
19.10241791082677
 21
7.211526481028545
 31
0.0
  0
LINE
  5
3D44
330
1E
100
AcDbEntity
  8
3
100
AcDbLine
 10
18.9252628128937
 20
7.211526481028545
 30
0.0
 11
18.74515512999507
 21
7.211526481028545
 31
0.0
  0
LINE
  5
3D45
330
1E
100
AcDbEntity
  8
3
100
AcDbLine
 10
18.56504744709646
 20
7.211526481028545
 30
0.0
 11
18.38789234916338
 21
7.211526481028545
 31
0.0
  0
LINE
  5
3D46
330
1E
100
AcDbEntity
  8
3
100
AcDbLine
 10
18.20778466626476
 20
7.211526481028545
 30
0.0
 11
18.02767698336614
 21
7.211526481028545
 31
0.0
  0
LINE
  5
3D47
330
1E
100
AcDbEntity
  8
3
100
AcDbLine
 10
17.85052188543306
 20
7.211526481028545
 30
0.0
 11
17.67041420253445
 21
7.211526481028545
 31
0.0
  0
LINE
  5
3D48
330
1E
100
AcDbEntity
  8
3
100
AcDbLine
 10
17.49030651963582
 20
7.211526481028545
 30
0.0
 11
17.31315142170275
 21
7.211526481028545
 31
0.0
  0
LINE
  5
3D49
330
1E
100
AcDbEntity
  8
3
100
AcDbLine
 10
17.13304373880413
 20
7.211526481028545
 30
0.0
 11
16.9529360559055
 21
7.211526481028545
 31
0.0
  0
LINE
  5
3D4A
330
1E
100
AcDbEntity
  8
3
100
AcDbLine
 10
16.77578095797244
 20
7.211526481028545
 30
0.0
 11
16.59567327507381
 21
7.211526481028545
 31
0.0
  0
LINE
  5
3D4B
330
1E
100
AcDbEntity
  8
3
100
AcDbLine
 10
16.41556559217519
 20
7.211526481028545
 30
0.0
 11
16.23841049424212
 21
7.211526481028545
 31
0.0
  0
LINE
  5
3D4C
330
1E
100
AcDbEntity
  8
3
100
AcDbLine
 10
16.0583028113435
 20
7.211526481028545
 30
0.0
 11
15.87819512844487
 21
7.211526481028545
 31
0.0
  0
LINE
  5
3D4D
330
1E
100
AcDbEntity
  8
3
100
AcDbLine
 10
15.69808744554626
 20
7.211526481028545
 30
0.0
 11
15.52093234761318
 21
7.211526481028545
 31
0.0
  0
LINE
  5
3D4E
330
1E
100
AcDbEntity
  8
3
100
AcDbLine
 10
15.34082466471456
 20
7.211526481028545
 30
0.0
 11
15.16071698181594
 21
7.211526481028545
 31
0.0
  0
LINE
  5
3D4F
330
1E
100
AcDbEntity
  8
3
100
AcDbLine
 10
14.98356188388287
 20
7.211526481028545
 30
0.0
 11
14.80345420098425
 21
7.211526481028545
 31
0.0
  0
LINE
  5
3D50
330
1E
100
AcDbEntity
  8
3
100
AcDbLine
 10
14.62334651808562
 20
7.211526481028545
 30
0.0
 11
14.44619142015255
 21
7.211526481028545
 31
0.0
  0
LINE
  5
3D51
330
1E
100
AcDbEntity
  8
3
100
AcDbLine
 10
14.26608373725393
 20
7.211526481028545
 30
0.0
 11
14.08597605435531
 21
7.211526481028545
 31
0.0
  0
LINE
  5
3D52
330
1E
100
AcDbEntity
  8
3
100
AcDbLine
 10
13.90882095642224
 20
7.211526481028545
 30
0.0
 11
13.72871327352362
 21
7.211526481028545
 31
0.0
  0
LINE
  5
3D53
330
1E
100
AcDbEntity
  8
3
100
AcDbLine
 10
13.54860559062499
 20
7.211526481028545
 30
0.0
 11
13.37145049269192
 21
7.211526481028545
 31
0.0
  0
LINE
  5
3D54
330
1E
100
AcDbEntity
  8
3
100
AcDbLine
 10
13.1913428097933
 20
7.211526481028545
 30
0.0
 11
13.01123512689468
 21
7.211526481028545
 31
0.0
  0
LINE
  5
3D55
330
1E
100
AcDbEntity
  8
3
100
AcDbLine
 10
12.83408002896161
 20
7.211526481028545
 30
0.0
 11
12.65397234606298
 21
7.211526481028545
 31
0.0
  0
LINE
  5
3D56
330
1E
100
AcDbEntity
  8
3
100
AcDbLine
 10
12.47386466316436
 20
7.211526481028545
 30
0.0
 11
12.29375698026574
 21
7.211526481028545
 31
0.0
  0
LINE
  5
3D57
330
1E
100
AcDbEntity
  8
3
100
AcDbLine
 10
12.11660188233267
 20
7.211526481028545
 30
0.0
 11
11.93649419943405
 21
7.211526481028545
 31
0.0
  0
LINE
  5
3D58
330
1E
100
AcDbEntity
  8
3
100
AcDbLine
 10
11.75638651653543
 20
7.211526481028545
 30
0.0
 11
11.57923141860235
 21
7.211526481028545
 31
0.0
  0
LINE
  5
3D59
330
1E
100
AcDbEntity
  8
3
100
AcDbLine
 10
11.39912373570373
 20
7.211526481028545
 30
0.0
 11
11.21901605280511
 21
7.211526481028545
 31
0.0
  0
LINE
  5
3D5A
330
1E
100
AcDbEntity
  8
3
100
AcDbLine
 10
11.04186095487204
 20
7.211526481028545
 30
0.0
 11
10.86175327197342
 21
7.211526481028545
 31
0.0
  0
LINE
  5
3D5B
330
1E
100
AcDbEntity
  8
3
100
AcDbLine
 10
10.6816455890748
 20
7.211526481028545
 30
0.0
 11
10.50449049114173
 21
7.211526481028545
 31
0.0
  0
LINE
  5
3D5C
330
1E
100
AcDbEntity
  8
3
100
AcDbLine
 10
10.3243828082431
 20
7.211526481028545
 30
0.0
 11
10.14427512534448
 21
7.211526481028545
 31
0.0
  0
LINE
  5
3D5D
330
1E
100
AcDbEntity
  8
3
100
AcDbLine
 10
9.967120027411414
 20
7.211526481028545
 30
0.0
 11
9.787012344512794
 21
7.211526481028545
 31
0.0
  0
LINE
  5
3D5E
330
1E
100
AcDbEntity
  8
3
100
AcDbLine
 10
9.606904661614171
 20
7.211526481028545
 30
0.0
 11
9.429749563681101
 21
7.211526481028545
 31
0.0
  0
LINE
  5
3D5F
330
1E
100
AcDbEntity
  8
3
100
AcDbLine
 10
9.249641880782478
 20
7.211526481028545
 30
0.0
 11
9.069534197883855
 21
7.211526481028545
 31
0.0
  0
LINE
  5
3D60
330
1E
100
AcDbEntity
  8
3
100
AcDbLine
 10
8.892379099950785
 20
7.211526481028545
 30
0.0
 11
8.712271417052164
 21
7.211526481028545
 31
0.0
  0
LINE
  5
3D61
330
1E
100
AcDbEntity
  8
3
100
AcDbLine
 10
8.53216373415354
 20
7.211526481028545
 30
0.0
 11
8.352056051254919
 21
7.211526481028545
 31
0.0
  0
LINE
  5
3D62
330
1E
100
AcDbEntity
  8
3
100
AcDbLine
 10
8.174900953321849
 20
7.211526481028545
 30
0.0
 11
7.994793270423228
 21
7.211526481028545
 31
0.0
  0
LINE
  5
3D63
330
1E
100
AcDbEntity
  8
3
100
AcDbLine
 10
7.814685587524603
 20
7.211526481028545
 30
0.0
 11
7.637530489591533
 21
7.211526481028545
 31
0.0
  0
LINE
  5
3D64
330
1E
100
AcDbEntity
  8
3
100
AcDbLine
 10
7.457422806692912
 20
7.211526481028545
 30
0.0
 11
7.277315123794288
 21
7.211526481028545
 31
0.0
  0
LINE
  5
3D65
330
1E
100
AcDbEntity
  8
3
100
AcDbLine
 10
7.100160025861217
 20
7.211526481028545
 30
0.0
 11
6.920052342962597
 21
7.211526481028545
 31
0.0
  0
LINE
  5
3D66
330
1E
100
AcDbEntity
  8
3
100
AcDbLine
 10
6.739944660063976
 20
7.211526481028545
 30
0.0
 11
6.562789562130902
 21
7.211526481028545
 31
0.0
  0
LINE
  5
3D67
330
1E
100
AcDbEntity
  8
3
100
AcDbLine
 10
6.382681879232281
 20
7.211526481028545
 30
0.0
 11
6.20257419633366
 21
7.211526481028545
 31
0.0
  0
LINE
  5
3D68
330
1E
100
AcDbEntity
  8
3
100
AcDbLine
 10
6.02541909840059
 20
7.211526481028545
 30
0.0
 11
5.845311415501967
 21
7.211526481028545
 31
0.0
  0
LINE
  5
3D69
330
1E
100
AcDbEntity
  8
3
100
AcDbLine
 10
5.665203732603346
 20
7.211526481028545
 30
0.0
 11
5.488048634670274
 21
7.211526481028545
 31
0.0
  0
LINE
  5
3D6A
330
1E
100
AcDbEntity
  8
3
100
AcDbLine
 10
5.307940951771653
 20
7.211526481028545
 30
0.0
 11
5.127833268873031
 21
7.211526481028545
 31
0.0
  0
LINE
  5
3D6B
330
1E
100
AcDbEntity
  8
3
100
AcDbLine
 10
4.947725585974408
 20
7.211526481028545
 30
0.0
 11
4.770570488041338
 21
7.211526481028545
 31
0.0
  0
LINE
  5
3D6C
330
1E
100
AcDbEntity
  8
3
100
AcDbLine
 10
4.590462805142715
 20
7.211526481028545
 30
0.0
 11
4.410355122244093
 21
7.211526481028545
 31
0.0
  0
LINE
  5
3D6D
330
1E
100
AcDbEntity
  8
3
100
AcDbLine
 10
4.233200024311022
 20
7.211526481028545
 30
0.0
 11
4.053092341412401
 21
7.211526481028545
 31
0.0
  0
LINE
  5
3D6E
330
1E
100
AcDbEntity
  8
3
100
AcDbLine
 10
3.872984658513779
 20
7.211526481028545
 30
0.0
 11
3.784407109547244
 21
7.211526481028545
 31
0.0
  0
LINE
  5
3D7B
330
1E
100
AcDbEntity
  8
3
100
AcDbLine
 10
22.0638606312746
 20
7.211526481028545
 30
0.0
 11
22.0638606312746
 21
7.152474781717518
 31
0.0
  0
LINE
  5
3D7C
330
1E
100
AcDbEntity
  8
3
100
AcDbLine
 10
21.65935649099409
 20
7.211526481028545
 30
0.0
 11
21.65935649099409
 21
7.196763556200787
 31
0.0
  0
LINE
  5
3D7D
330
1E
100
AcDbEntity
  8
3
100
AcDbLine
 10
21.65935649099409
 20
7.167237706545276
 30
0.0
 11
21.65935649099409
 21
7.152474781717518
 31
0.0
  0
LINE
  5
3D7E
330
1E
100
AcDbEntity
  8
3
100
AcDbLine
 10
21.65935649099409
 20
7.211526481028545
 30
0.0
 11
21.65935649099409
 21
7.196763556200787
 31
0.0
  0
LINE
  5
3D7F
330
1E
100
AcDbEntity
  8
3
100
AcDbLine
 10
21.65935649099409
 20
7.167237706545276
 30
0.0
 11
21.65935649099409
 21
7.152474781717518
 31
0.0
  0
LINE
  5
3D80
330
1E
100
AcDbEntity
  8
3
100
AcDbLine
 10
3.468480518233267
 20
7.211526481028545
 30
0.0
 11
3.468480518233267
 21
7.196763556200787
 31
0.0
  0
LINE
  5
3D81
330
1E
100
AcDbEntity
  8
3
100
AcDbLine
 10
3.468480518233267
 20
7.167237706545276
 30
0.0
 11
3.468480518233267
 21
7.152474781717518
 31
0.0
  0
LINE
  5
3D82
330
1E
100
AcDbEntity
  8
3
100
AcDbLine
 10
3.468480518233267
 20
7.211526481028545
 30
0.0
 11
3.468480518233267
 21
7.196763556200787
 31
0.0
  0
LINE
  5
3D83
330
1E
100
AcDbEntity
  8
3
100
AcDbLine
 10
3.468480518233267
 20
7.167237706545276
 30
0.0
 11
3.468480518233267
 21
7.152474781717518
 31
0.0
  0
LINE
  5
3D84
330
1E
100
AcDbEntity
  8
3
100
AcDbLine
 10
3.784407109547244
 20
7.241052330684055
 30
0.0
 11
3.872984658513779
 21
7.241052330684055
 31
0.0
  0
LINE
  5
3D85
330
1E
100
AcDbEntity
  8
3
100
AcDbLine
 10
4.053092341412401
 20
7.241052330684055
 30
0.0
 11
4.233200024311022
 21
7.241052330684055
 31
0.0
  0
LINE
  5
3D86
330
1E
100
AcDbEntity
  8
3
100
AcDbLine
 10
4.410355122244093
 20
7.241052330684055
 30
0.0
 11
4.590462805142715
 21
7.241052330684055
 31
0.0
  0
LINE
  5
3D87
330
1E
100
AcDbEntity
  8
3
100
AcDbLine
 10
4.770570488041338
 20
7.241052330684055
 30
0.0
 11
4.947725585974408
 21
7.241052330684055
 31
0.0
  0
LINE
  5
3D88
330
1E
100
AcDbEntity
  8
3
100
AcDbLine
 10
5.127833268873031
 20
7.241052330684055
 30
0.0
 11
5.307940951771653
 21
7.241052330684055
 31
0.0
  0
LINE
  5
3D89
330
1E
100
AcDbEntity
  8
3
100
AcDbLine
 10
5.488048634670274
 20
7.241052330684055
 30
0.0
 11
5.665203732603346
 21
7.241052330684055
 31
0.0
  0
LINE
  5
3D8A
330
1E
100
AcDbEntity
  8
3
100
AcDbLine
 10
5.845311415501967
 20
7.241052330684055
 30
0.0
 11
6.02541909840059
 21
7.241052330684055
 31
0.0
  0
LINE
  5
3D8B
330
1E
100
AcDbEntity
  8
3
100
AcDbLine
 10
6.20257419633366
 20
7.241052330684055
 30
0.0
 11
6.382681879232281
 21
7.241052330684055
 31
0.0
  0
LINE
  5
3D8C
330
1E
100
AcDbEntity
  8
3
100
AcDbLine
 10
6.562789562130902
 20
7.241052330684055
 30
0.0
 11
6.739944660063976
 21
7.241052330684055
 31
0.0
  0
LINE
  5
3D8D
330
1E
100
AcDbEntity
  8
3
100
AcDbLine
 10
6.920052342962597
 20
7.241052330684055
 30
0.0
 11
7.100160025861217
 21
7.241052330684055
 31
0.0
  0
LINE
  5
3D8E
330
1E
100
AcDbEntity
  8
3
100
AcDbLine
 10
7.277315123794288
 20
7.241052330684055
 30
0.0
 11
7.457422806692912
 21
7.241052330684055
 31
0.0
  0
LINE
  5
3D8F
330
1E
100
AcDbEntity
  8
3
100
AcDbLine
 10
7.637530489591533
 20
7.241052330684055
 30
0.0
 11
7.814685587524603
 21
7.241052330684055
 31
0.0
  0
LINE
  5
3D90
330
1E
100
AcDbEntity
  8
3
100
AcDbLine
 10
7.994793270423228
 20
7.241052330684055
 30
0.0
 11
8.174900953321849
 21
7.241052330684055
 31
0.0
  0
LINE
  5
3D91
330
1E
100
AcDbEntity
  8
3
100
AcDbLine
 10
8.352056051254919
 20
7.241052330684055
 30
0.0
 11
8.53216373415354
 21
7.241052330684055
 31
0.0
  0
LINE
  5
3D92
330
1E
100
AcDbEntity
  8
3
100
AcDbLine
 10
8.712271417052164
 20
7.241052330684055
 30
0.0
 11
8.892379099950785
 21
7.241052330684055
 31
0.0
  0
LINE
  5
3D93
330
1E
100
AcDbEntity
  8
3
100
AcDbLine
 10
9.069534197883855
 20
7.241052330684055
 30
0.0
 11
9.249641880782478
 21
7.241052330684055
 31
0.0
  0
LINE
  5
3D94
330
1E
100
AcDbEntity
  8
3
100
AcDbLine
 10
9.429749563681101
 20
7.241052330684055
 30
0.0
 11
9.606904661614171
 21
7.241052330684055
 31
0.0
  0
LINE
  5
3D95
330
1E
100
AcDbEntity
  8
3
100
AcDbLine
 10
9.787012344512794
 20
7.241052330684055
 30
0.0
 11
9.967120027411414
 21
7.241052330684055
 31
0.0
  0
LINE
  5
3D96
330
1E
100
AcDbEntity
  8
3
100
AcDbLine
 10
10.14427512534448
 20
7.241052330684055
 30
0.0
 11
10.3243828082431
 21
7.241052330684055
 31
0.0
  0
LINE
  5
3D97
330
1E
100
AcDbEntity
  8
3
100
AcDbLine
 10
10.50449049114173
 20
7.241052330684055
 30
0.0
 11
10.6816455890748
 21
7.241052330684055
 31
0.0
  0
LINE
  5
3D98
330
1E
100
AcDbEntity
  8
3
100
AcDbLine
 10
10.86175327197342
 20
7.241052330684055
 30
0.0
 11
11.04186095487204
 21
7.241052330684055
 31
0.0
  0
LINE
  5
3D99
330
1E
100
AcDbEntity
  8
3
100
AcDbLine
 10
11.21901605280511
 20
7.241052330684055
 30
0.0
 11
11.39912373570373
 21
7.241052330684055
 31
0.0
  0
LINE
  5
3D9A
330
1E
100
AcDbEntity
  8
3
100
AcDbLine
 10
11.57923141860235
 20
7.241052330684055
 30
0.0
 11
11.75638651653543
 21
7.241052330684055
 31
0.0
  0
LINE
  5
3D9B
330
1E
100
AcDbEntity
  8
3
100
AcDbLine
 10
11.93649419943405
 20
7.241052330684055
 30
0.0
 11
12.11660188233267
 21
7.241052330684055
 31
0.0
  0
LINE
  5
3D9C
330
1E
100
AcDbEntity
  8
3
100
AcDbLine
 10
12.29375698026574
 20
7.241052330684055
 30
0.0
 11
12.47386466316436
 21
7.241052330684055
 31
0.0
  0
LINE
  5
3D9D
330
1E
100
AcDbEntity
  8
3
100
AcDbLine
 10
12.65397234606298
 20
7.241052330684055
 30
0.0
 11
12.83408002896161
 21
7.241052330684055
 31
0.0
  0
LINE
  5
3D9E
330
1E
100
AcDbEntity
  8
3
100
AcDbLine
 10
13.01123512689468
 20
7.241052330684055
 30
0.0
 11
13.1913428097933
 21
7.241052330684055
 31
0.0
  0
LINE
  5
3D9F
330
1E
100
AcDbEntity
  8
3
100
AcDbLine
 10
13.37145049269192
 20
7.241052330684055
 30
0.0
 11
13.54860559062499
 21
7.241052330684055
 31
0.0
  0
LINE
  5
3DA0
330
1E
100
AcDbEntity
  8
3
100
AcDbLine
 10
13.72871327352362
 20
7.241052330684055
 30
0.0
 11
13.90882095642224
 21
7.241052330684055
 31
0.0
  0
LINE
  5
3DA1
330
1E
100
AcDbEntity
  8
3
100
AcDbLine
 10
14.08597605435531
 20
7.241052330684055
 30
0.0
 11
14.26608373725393
 21
7.241052330684055
 31
0.0
  0
LINE
  5
3DA2
330
1E
100
AcDbEntity
  8
3
100
AcDbLine
 10
14.44619142015255
 20
7.241052330684055
 30
0.0
 11
14.62334651808562
 21
7.241052330684055
 31
0.0
  0
LINE
  5
3DA3
330
1E
100
AcDbEntity
  8
3
100
AcDbLine
 10
14.80345420098425
 20
7.241052330684055
 30
0.0
 11
14.98356188388287
 21
7.241052330684055
 31
0.0
  0
LINE
  5
3DA4
330
1E
100
AcDbEntity
  8
3
100
AcDbLine
 10
15.16071698181594
 20
7.241052330684055
 30
0.0
 11
15.34082466471456
 21
7.241052330684055
 31
0.0
  0
LINE
  5
3DA5
330
1E
100
AcDbEntity
  8
3
100
AcDbLine
 10
15.52093234761318
 20
7.241052330684055
 30
0.0
 11
15.69808744554626
 21
7.241052330684055
 31
0.0
  0
LINE
  5
3DA6
330
1E
100
AcDbEntity
  8
3
100
AcDbLine
 10
15.87819512844487
 20
7.241052330684055
 30
0.0
 11
16.0583028113435
 21
7.241052330684055
 31
0.0
  0
LINE
  5
3DA7
330
1E
100
AcDbEntity
  8
3
100
AcDbLine
 10
16.23841049424212
 20
7.241052330684055
 30
0.0
 11
16.41556559217519
 21
7.241052330684055
 31
0.0
  0
LINE
  5
3DA8
330
1E
100
AcDbEntity
  8
3
100
AcDbLine
 10
16.59567327507381
 20
7.241052330684055
 30
0.0
 11
16.77578095797244
 21
7.241052330684055
 31
0.0
  0
LINE
  5
3DA9
330
1E
100
AcDbEntity
  8
3
100
AcDbLine
 10
16.9529360559055
 20
7.241052330684055
 30
0.0
 11
17.13304373880413
 21
7.241052330684055
 31
0.0
  0
LINE
  5
3DAA
330
1E
100
AcDbEntity
  8
3
100
AcDbLine
 10
17.31315142170275
 20
7.241052330684055
 30
0.0
 11
17.49030651963582
 21
7.241052330684055
 31
0.0
  0
LINE
  5
3DAB
330
1E
100
AcDbEntity
  8
3
100
AcDbLine
 10
17.67041420253445
 20
7.241052330684055
 30
0.0
 11
17.85052188543306
 21
7.241052330684055
 31
0.0
  0
LINE
  5
3DAC
330
1E
100
AcDbEntity
  8
3
100
AcDbLine
 10
18.02767698336614
 20
7.241052330684055
 30
0.0
 11
18.20778466626476
 21
7.241052330684055
 31
0.0
  0
LINE
  5
3DAD
330
1E
100
AcDbEntity
  8
3
100
AcDbLine
 10
18.38789234916338
 20
7.241052330684055
 30
0.0
 11
18.56504744709646
 21
7.241052330684055
 31
0.0
  0
LINE
  5
3DAE
330
1E
100
AcDbEntity
  8
3
100
AcDbLine
 10
18.74515512999507
 20
7.241052330684055
 30
0.0
 11
18.9252628128937
 21
7.241052330684055
 31
0.0
  0
LINE
  5
3DAF
330
1E
100
AcDbEntity
  8
3
100
AcDbLine
 10
19.10241791082677
 20
7.241052330684055
 30
0.0
 11
19.28252559372539
 21
7.241052330684055
 31
0.0
  0
LINE
  5
3DB0
330
1E
100
AcDbEntity
  8
3
100
AcDbLine
 10
19.46263327662401
 20
7.241052330684055
 30
0.0
 11
19.64274095952264
 21
7.241052330684055
 31
0.0
  0
LINE
  5
3DB1
330
1E
100
AcDbEntity
  8
3
100
AcDbLine
 10
19.8198960574557
 20
7.241052330684055
 30
0.0
 11
20.00000374035433
 21
7.241052330684055
 31
0.0
  0
LINE
  5
3DB2
330
1E
100
AcDbEntity
  8
3
100
AcDbLine
 10
20.18011142325295
 20
7.241052330684055
 30
0.0
 11
20.35726652118602
 21
7.241052330684055
 31
0.0
  0
LINE
  5
3DB3
330
1E
100
AcDbEntity
  8
3
100
AcDbLine
 10
20.53737420408464
 20
7.241052330684055
 30
0.0
 11
20.71748188698327
 21
7.241052330684055
 31
0.0
  0
LINE
  5
3DB4
330
1E
100
AcDbEntity
  8
3
100
AcDbLine
 10
20.89463698491634
 20
7.241052330684055
 30
0.0
 11
21.07474466781496
 21
7.241052330684055
 31
0.0
  0
LINE
  5
3DBA
330
1E
100
AcDbEntity
  8
3
100
AcDbLine
 10
21.07474466781496
 20
7.241052330684055
 30
0.0
 11
20.89463698491634
 21
7.241052330684055
 31
0.0
  0
LINE
  5
3DBB
330
1E
100
AcDbEntity
  8
3
100
AcDbLine
 10
20.71748188698327
 20
7.241052330684055
 30
0.0
 11
20.53737420408464
 21
7.241052330684055
 31
0.0
  0
LINE
  5
3DBC
330
1E
100
AcDbEntity
  8
3
100
AcDbLine
 10
20.35726652118602
 20
7.241052330684055
 30
0.0
 11
20.18011142325295
 21
7.241052330684055
 31
0.0
  0
LINE
  5
3DBD
330
1E
100
AcDbEntity
  8
3
100
AcDbLine
 10
20.00000374035433
 20
7.241052330684055
 30
0.0
 11
19.8198960574557
 21
7.241052330684055
 31
0.0
  0
LINE
  5
3DBE
330
1E
100
AcDbEntity
  8
3
100
AcDbLine
 10
19.64274095952264
 20
7.241052330684055
 30
0.0
 11
19.46263327662401
 21
7.241052330684055
 31
0.0
  0
LINE
  5
3DBF
330
1E
100
AcDbEntity
  8
3
100
AcDbLine
 10
19.28252559372539
 20
7.241052330684055
 30
0.0
 11
19.10241791082677
 21
7.241052330684055
 31
0.0
  0
LINE
  5
3DC0
330
1E
100
AcDbEntity
  8
3
100
AcDbLine
 10
18.9252628128937
 20
7.241052330684055
 30
0.0
 11
18.74515512999507
 21
7.241052330684055
 31
0.0
  0
LINE
  5
3DC1
330
1E
100
AcDbEntity
  8
3
100
AcDbLine
 10
18.56504744709646
 20
7.241052330684055
 30
0.0
 11
18.38789234916338
 21
7.241052330684055
 31
0.0
  0
LINE
  5
3DC2
330
1E
100
AcDbEntity
  8
3
100
AcDbLine
 10
18.20778466626476
 20
7.241052330684055
 30
0.0
 11
18.02767698336614
 21
7.241052330684055
 31
0.0
  0
LINE
  5
3DC3
330
1E
100
AcDbEntity
  8
3
100
AcDbLine
 10
17.85052188543306
 20
7.241052330684055
 30
0.0
 11
17.67041420253445
 21
7.241052330684055
 31
0.0
  0
LINE
  5
3DC4
330
1E
100
AcDbEntity
  8
3
100
AcDbLine
 10
17.49030651963582
 20
7.241052330684055
 30
0.0
 11
17.31315142170275
 21
7.241052330684055
 31
0.0
  0
LINE
  5
3DC5
330
1E
100
AcDbEntity
  8
3
100
AcDbLine
 10
17.13304373880413
 20
7.241052330684055
 30
0.0
 11
16.9529360559055
 21
7.241052330684055
 31
0.0
  0
LINE
  5
3DC6
330
1E
100
AcDbEntity
  8
3
100
AcDbLine
 10
16.77578095797244
 20
7.241052330684055
 30
0.0
 11
16.59567327507381
 21
7.241052330684055
 31
0.0
  0
LINE
  5
3DC7
330
1E
100
AcDbEntity
  8
3
100
AcDbLine
 10
16.41556559217519
 20
7.241052330684055
 30
0.0
 11
16.23841049424212
 21
7.241052330684055
 31
0.0
  0
LINE
  5
3DC8
330
1E
100
AcDbEntity
  8
3
100
AcDbLine
 10
16.0583028113435
 20
7.241052330684055
 30
0.0
 11
15.87819512844487
 21
7.241052330684055
 31
0.0
  0
LINE
  5
3DC9
330
1E
100
AcDbEntity
  8
3
100
AcDbLine
 10
15.69808744554626
 20
7.241052330684055
 30
0.0
 11
15.52093234761318
 21
7.241052330684055
 31
0.0
  0
LINE
  5
3DCA
330
1E
100
AcDbEntity
  8
3
100
AcDbLine
 10
15.34082466471456
 20
7.241052330684055
 30
0.0
 11
15.16071698181594
 21
7.241052330684055
 31
0.0
  0
LINE
  5
3DCB
330
1E
100
AcDbEntity
  8
3
100
AcDbLine
 10
14.98356188388287
 20
7.241052330684055
 30
0.0
 11
14.80345420098425
 21
7.241052330684055
 31
0.0
  0
LINE
  5
3DCC
330
1E
100
AcDbEntity
  8
3
100
AcDbLine
 10
14.62334651808562
 20
7.241052330684055
 30
0.0
 11
14.44619142015255
 21
7.241052330684055
 31
0.0
  0
LINE
  5
3DCD
330
1E
100
AcDbEntity
  8
3
100
AcDbLine
 10
14.26608373725393
 20
7.241052330684055
 30
0.0
 11
14.08597605435531
 21
7.241052330684055
 31
0.0
  0
LINE
  5
3DCE
330
1E
100
AcDbEntity
  8
3
100
AcDbLine
 10
13.90882095642224
 20
7.241052330684055
 30
0.0
 11
13.72871327352362
 21
7.241052330684055
 31
0.0
  0
LINE
  5
3DCF
330
1E
100
AcDbEntity
  8
3
100
AcDbLine
 10
13.54860559062499
 20
7.241052330684055
 30
0.0
 11
13.37145049269192
 21
7.241052330684055
 31
0.0
  0
LINE
  5
3DD0
330
1E
100
AcDbEntity
  8
3
100
AcDbLine
 10
13.1913428097933
 20
7.241052330684055
 30
0.0
 11
13.01123512689468
 21
7.241052330684055
 31
0.0
  0
LINE
  5
3DD1
330
1E
100
AcDbEntity
  8
3
100
AcDbLine
 10
12.83408002896161
 20
7.241052330684055
 30
0.0
 11
12.65397234606298
 21
7.241052330684055
 31
0.0
  0
LINE
  5
3DD2
330
1E
100
AcDbEntity
  8
3
100
AcDbLine
 10
12.47386466316436
 20
7.241052330684055
 30
0.0
 11
12.29375698026574
 21
7.241052330684055
 31
0.0
  0
LINE
  5
3DD3
330
1E
100
AcDbEntity
  8
3
100
AcDbLine
 10
12.11660188233267
 20
7.241052330684055
 30
0.0
 11
11.93649419943405
 21
7.241052330684055
 31
0.0
  0
LINE
  5
3DD4
330
1E
100
AcDbEntity
  8
3
100
AcDbLine
 10
11.75638651653543
 20
7.241052330684055
 30
0.0
 11
11.57923141860235
 21
7.241052330684055
 31
0.0
  0
LINE
  5
3DD5
330
1E
100
AcDbEntity
  8
3
100
AcDbLine
 10
11.39912373570373
 20
7.241052330684055
 30
0.0
 11
11.21901605280511
 21
7.241052330684055
 31
0.0
  0
LINE
  5
3DD6
330
1E
100
AcDbEntity
  8
3
100
AcDbLine
 10
11.04186095487204
 20
7.241052330684055
 30
0.0
 11
10.86175327197342
 21
7.241052330684055
 31
0.0
  0
LINE
  5
3DD7
330
1E
100
AcDbEntity
  8
3
100
AcDbLine
 10
10.6816455890748
 20
7.241052330684055
 30
0.0
 11
10.50449049114173
 21
7.241052330684055
 31
0.0
  0
LINE
  5
3DD8
330
1E
100
AcDbEntity
  8
3
100
AcDbLine
 10
10.3243828082431
 20
7.241052330684055
 30
0.0
 11
10.14427512534448
 21
7.241052330684055
 31
0.0
  0
LINE
  5
3DD9
330
1E
100
AcDbEntity
  8
3
100
AcDbLine
 10
9.967120027411414
 20
7.241052330684055
 30
0.0
 11
9.787012344512794
 21
7.241052330684055
 31
0.0
  0
LINE
  5
3DDA
330
1E
100
AcDbEntity
  8
3
100
AcDbLine
 10
9.606904661614171
 20
7.241052330684055
 30
0.0
 11
9.429749563681101
 21
7.241052330684055
 31
0.0
  0
LINE
  5
3DDB
330
1E
100
AcDbEntity
  8
3
100
AcDbLine
 10
9.249641880782478
 20
7.241052330684055
 30
0.0
 11
9.069534197883855
 21
7.241052330684055
 31
0.0
  0
LINE
  5
3DDC
330
1E
100
AcDbEntity
  8
3
100
AcDbLine
 10
8.892379099950785
 20
7.241052330684055
 30
0.0
 11
8.712271417052164
 21
7.241052330684055
 31
0.0
  0
LINE
  5
3DDD
330
1E
100
AcDbEntity
  8
3
100
AcDbLine
 10
8.53216373415354
 20
7.241052330684055
 30
0.0
 11
8.352056051254919
 21
7.241052330684055
 31
0.0
  0
LINE
  5
3DDE
330
1E
100
AcDbEntity
  8
3
100
AcDbLine
 10
8.174900953321849
 20
7.241052330684055
 30
0.0
 11
7.994793270423228
 21
7.241052330684055
 31
0.0
  0
LINE
  5
3DDF
330
1E
100
AcDbEntity
  8
3
100
AcDbLine
 10
7.814685587524603
 20
7.241052330684055
 30
0.0
 11
7.637530489591533
 21
7.241052330684055
 31
0.0
  0
LINE
  5
3DE0
330
1E
100
AcDbEntity
  8
3
100
AcDbLine
 10
7.457422806692912
 20
7.241052330684055
 30
0.0
 11
7.277315123794288
 21
7.241052330684055
 31
0.0
  0
LINE
  5
3DE1
330
1E
100
AcDbEntity
  8
3
100
AcDbLine
 10
7.100160025861217
 20
7.241052330684055
 30
0.0
 11
6.920052342962597
 21
7.241052330684055
 31
0.0
  0
LINE
  5
3DE2
330
1E
100
AcDbEntity
  8
3
100
AcDbLine
 10
6.739944660063976
 20
7.241052330684055
 30
0.0
 11
6.562789562130902
 21
7.241052330684055
 31
0.0
  0
LINE
  5
3DE3
330
1E
100
AcDbEntity
  8
3
100
AcDbLine
 10
6.382681879232281
 20
7.241052330684055
 30
0.0
 11
6.20257419633366
 21
7.241052330684055
 31
0.0
  0
LINE
  5
3DE4
330
1E
100
AcDbEntity
  8
3
100
AcDbLine
 10
6.02541909840059
 20
7.241052330684055
 30
0.0
 11
5.845311415501967
 21
7.241052330684055
 31
0.0
  0
LINE
  5
3DE5
330
1E
100
AcDbEntity
  8
3
100
AcDbLine
 10
5.665203732603346
 20
7.241052330684055
 30
0.0
 11
5.488048634670274
 21
7.241052330684055
 31
0.0
  0
LINE
  5
3DE6
330
1E
100
AcDbEntity
  8
3
100
AcDbLine
 10
5.307940951771653
 20
7.241052330684055
 30
0.0
 11
5.127833268873031
 21
7.241052330684055
 31
0.0
  0
LINE
  5
3DE7
330
1E
100
AcDbEntity
  8
3
100
AcDbLine
 10
4.947725585974408
 20
7.241052330684055
 30
0.0
 11
4.770570488041338
 21
7.241052330684055
 31
0.0
  0
LINE
  5
3DE8
330
1E
100
AcDbEntity
  8
3
100
AcDbLine
 10
4.590462805142715
 20
7.241052330684055
 30
0.0
 11
4.410355122244093
 21
7.241052330684055
 31
0.0
  0
LINE
  5
3DE9
330
1E
100
AcDbEntity
  8
3
100
AcDbLine
 10
4.233200024311022
 20
7.241052330684055
 30
0.0
 11
4.053092341412401
 21
7.241052330684055
 31
0.0
  0
LINE
  5
3DEA
330
1E
100
AcDbEntity
  8
3
100
AcDbLine
 10
3.872984658513779
 20
7.241052330684055
 30
0.0
 11
3.784407109547244
 21
7.241052330684055
 31
0.0
  0
LINE
  5
3DEB
330
1E
100
AcDbEntity
  8
3
100
AcDbLine
 10
21.34342989968011
 20
7.152474781717518
 30
0.0
 11
21.34342989968011
 21
7.164285121579726
 31
0.0
  0
LINE
  5
3DFC
330
1E
100
AcDbEntity
  8
3
100
AcDbLine
 10
4.053092341412401
 20
7.241052330684055
 30
0.0
 11
4.233200024311022
 21
7.241052330684055
 31
0.0
  0
LINE
  5
3DFD
330
1E
100
AcDbEntity
  8
3
100
AcDbLine
 10
4.410355122244093
 20
7.241052330684055
 30
0.0
 11
4.590462805142715
 21
7.241052330684055
 31
0.0
  0
LINE
  5
3DFE
330
1E
100
AcDbEntity
  8
3
100
AcDbLine
 10
4.770570488041338
 20
7.241052330684055
 30
0.0
 11
4.947725585974408
 21
7.241052330684055
 31
0.0
  0
LINE
  5
3DFF
330
1E
100
AcDbEntity
  8
3
100
AcDbLine
 10
5.127833268873031
 20
7.241052330684055
 30
0.0
 11
5.307940951771653
 21
7.241052330684055
 31
0.0
  0
LINE
  5
3E00
330
1E
100
AcDbEntity
  8
3
100
AcDbLine
 10
5.488048634670274
 20
7.241052330684055
 30
0.0
 11
5.665203732603346
 21
7.241052330684055
 31
0.0
  0
LINE
  5
3E01
330
1E
100
AcDbEntity
  8
3
100
AcDbLine
 10
5.845311415501967
 20
7.241052330684055
 30
0.0
 11
6.02541909840059
 21
7.241052330684055
 31
0.0
  0
LINE
  5
3E02
330
1E
100
AcDbEntity
  8
3
100
AcDbLine
 10
6.20257419633366
 20
7.241052330684055
 30
0.0
 11
6.382681879232281
 21
7.241052330684055
 31
0.0
  0
LINE
  5
3E03
330
1E
100
AcDbEntity
  8
3
100
AcDbLine
 10
6.562789562130902
 20
7.241052330684055
 30
0.0
 11
6.739944660063976
 21
7.241052330684055
 31
0.0
  0
LINE
  5
3E04
330
1E
100
AcDbEntity
  8
3
100
AcDbLine
 10
6.920052342962597
 20
7.241052330684055
 30
0.0
 11
7.100160025861217
 21
7.241052330684055
 31
0.0
  0
LINE
  5
3E05
330
1E
100
AcDbEntity
  8
3
100
AcDbLine
 10
7.277315123794288
 20
7.241052330684055
 30
0.0
 11
7.457422806692912
 21
7.241052330684055
 31
0.0
  0
LINE
  5
3E06
330
1E
100
AcDbEntity
  8
3
100
AcDbLine
 10
7.637530489591533
 20
7.241052330684055
 30
0.0
 11
7.814685587524603
 21
7.241052330684055
 31
0.0
  0
LINE
  5
3E07
330
1E
100
AcDbEntity
  8
3
100
AcDbLine
 10
7.994793270423228
 20
7.241052330684055
 30
0.0
 11
8.174900953321849
 21
7.241052330684055
 31
0.0
  0
LINE
  5
3E08
330
1E
100
AcDbEntity
  8
3
100
AcDbLine
 10
8.352056051254919
 20
7.241052330684055
 30
0.0
 11
8.53216373415354
 21
7.241052330684055
 31
0.0
  0
LINE
  5
3E09
330
1E
100
AcDbEntity
  8
3
100
AcDbLine
 10
8.712271417052164
 20
7.241052330684055
 30
0.0
 11
8.892379099950785
 21
7.241052330684055
 31
0.0
  0
LINE
  5
3E0A
330
1E
100
AcDbEntity
  8
3
100
AcDbLine
 10
9.069534197883855
 20
7.241052330684055
 30
0.0
 11
9.249641880782478
 21
7.241052330684055
 31
0.0
  0
LINE
  5
3E0B
330
1E
100
AcDbEntity
  8
3
100
AcDbLine
 10
9.429749563681101
 20
7.241052330684055
 30
0.0
 11
9.606904661614171
 21
7.241052330684055
 31
0.0
  0
LINE
  5
3E0C
330
1E
100
AcDbEntity
  8
3
100
AcDbLine
 10
9.787012344512794
 20
7.241052330684055
 30
0.0
 11
9.967120027411414
 21
7.241052330684055
 31
0.0
  0
LINE
  5
3E0D
330
1E
100
AcDbEntity
  8
3
100
AcDbLine
 10
10.14427512534448
 20
7.241052330684055
 30
0.0
 11
10.3243828082431
 21
7.241052330684055
 31
0.0
  0
LINE
  5
3E0E
330
1E
100
AcDbEntity
  8
3
100
AcDbLine
 10
10.50449049114173
 20
7.241052330684055
 30
0.0
 11
10.6816455890748
 21
7.241052330684055
 31
0.0
  0
LINE
  5
3E0F
330
1E
100
AcDbEntity
  8
3
100
AcDbLine
 10
10.86175327197342
 20
7.241052330684055
 30
0.0
 11
11.04186095487204
 21
7.241052330684055
 31
0.0
  0
LINE
  5
3E10
330
1E
100
AcDbEntity
  8
3
100
AcDbLine
 10
11.21901605280511
 20
7.241052330684055
 30
0.0
 11
11.39912373570373
 21
7.241052330684055
 31
0.0
  0
LINE
  5
3E11
330
1E
100
AcDbEntity
  8
3
100
AcDbLine
 10
11.57923141860235
 20
7.241052330684055
 30
0.0
 11
11.75638651653543
 21
7.241052330684055
 31
0.0
  0
LINE
  5
3E12
330
1E
100
AcDbEntity
  8
3
100
AcDbLine
 10
11.93649419943405
 20
7.241052330684055
 30
0.0
 11
12.11660188233267
 21
7.241052330684055
 31
0.0
  0
LINE
  5
3E13
330
1E
100
AcDbEntity
  8
3
100
AcDbLine
 10
12.29375698026574
 20
7.241052330684055
 30
0.0
 11
12.47386466316436
 21
7.241052330684055
 31
0.0
  0
LINE
  5
3E14
330
1E
100
AcDbEntity
  8
3
100
AcDbLine
 10
12.65397234606298
 20
7.241052330684055
 30
0.0
 11
12.83408002896161
 21
7.241052330684055
 31
0.0
  0
LINE
  5
3E15
330
1E
100
AcDbEntity
  8
3
100
AcDbLine
 10
13.01123512689468
 20
7.241052330684055
 30
0.0
 11
13.1913428097933
 21
7.241052330684055
 31
0.0
  0
LINE
  5
3E16
330
1E
100
AcDbEntity
  8
3
100
AcDbLine
 10
13.37145049269192
 20
7.241052330684055
 30
0.0
 11
13.54860559062499
 21
7.241052330684055
 31
0.0
  0
LINE
  5
3E17
330
1E
100
AcDbEntity
  8
3
100
AcDbLine
 10
13.72871327352362
 20
7.241052330684055
 30
0.0
 11
13.90882095642224
 21
7.241052330684055
 31
0.0
  0
LINE
  5
3E18
330
1E
100
AcDbEntity
  8
3
100
AcDbLine
 10
14.08597605435531
 20
7.241052330684055
 30
0.0
 11
14.26608373725393
 21
7.241052330684055
 31
0.0
  0
LINE
  5
3E19
330
1E
100
AcDbEntity
  8
3
100
AcDbLine
 10
14.44619142015255
 20
7.241052330684055
 30
0.0
 11
14.62334651808562
 21
7.241052330684055
 31
0.0
  0
LINE
  5
3E1A
330
1E
100
AcDbEntity
  8
3
100
AcDbLine
 10
14.80345420098425
 20
7.241052330684055
 30
0.0
 11
14.98356188388287
 21
7.241052330684055
 31
0.0
  0
LINE
  5
3E1B
330
1E
100
AcDbEntity
  8
3
100
AcDbLine
 10
15.16071698181594
 20
7.241052330684055
 30
0.0
 11
15.34082466471456
 21
7.241052330684055
 31
0.0
  0
LINE
  5
3E1C
330
1E
100
AcDbEntity
  8
3
100
AcDbLine
 10
15.52093234761318
 20
7.241052330684055
 30
0.0
 11
15.69808744554626
 21
7.241052330684055
 31
0.0
  0
LINE
  5
3E1D
330
1E
100
AcDbEntity
  8
3
100
AcDbLine
 10
15.87819512844487
 20
7.241052330684055
 30
0.0
 11
16.0583028113435
 21
7.241052330684055
 31
0.0
  0
LINE
  5
3E1E
330
1E
100
AcDbEntity
  8
3
100
AcDbLine
 10
16.23841049424212
 20
7.241052330684055
 30
0.0
 11
16.41556559217519
 21
7.241052330684055
 31
0.0
  0
LINE
  5
3E1F
330
1E
100
AcDbEntity
  8
3
100
AcDbLine
 10
16.59567327507381
 20
7.241052330684055
 30
0.0
 11
16.77578095797244
 21
7.241052330684055
 31
0.0
  0
LINE
  5
3E20
330
1E
100
AcDbEntity
  8
3
100
AcDbLine
 10
16.9529360559055
 20
7.241052330684055
 30
0.0
 11
17.13304373880413
 21
7.241052330684055
 31
0.0
  0
LINE
  5
3E21
330
1E
100
AcDbEntity
  8
3
100
AcDbLine
 10
17.31315142170275
 20
7.241052330684055
 30
0.0
 11
17.49030651963582
 21
7.241052330684055
 31
0.0
  0
LINE
  5
3E22
330
1E
100
AcDbEntity
  8
3
100
AcDbLine
 10
17.67041420253445
 20
7.241052330684055
 30
0.0
 11
17.85052188543306
 21
7.241052330684055
 31
0.0
  0
LINE
  5
3E23
330
1E
100
AcDbEntity
  8
3
100
AcDbLine
 10
18.02767698336614
 20
7.241052330684055
 30
0.0
 11
18.20778466626476
 21
7.241052330684055
 31
0.0
  0
LINE
  5
3E24
330
1E
100
AcDbEntity
  8
3
100
AcDbLine
 10
18.38789234916338
 20
7.241052330684055
 30
0.0
 11
18.56504744709646
 21
7.241052330684055
 31
0.0
  0
LINE
  5
3E25
330
1E
100
AcDbEntity
  8
3
100
AcDbLine
 10
18.74515512999507
 20
7.241052330684055
 30
0.0
 11
18.9252628128937
 21
7.241052330684055
 31
0.0
  0
LINE
  5
3E26
330
1E
100
AcDbEntity
  8
3
100
AcDbLine
 10
19.10241791082677
 20
7.241052330684055
 30
0.0
 11
19.28252559372539
 21
7.241052330684055
 31
0.0
  0
LINE
  5
3E27
330
1E
100
AcDbEntity
  8
3
100
AcDbLine
 10
19.46263327662401
 20
7.241052330684055
 30
0.0
 11
19.64274095952264
 21
7.241052330684055
 31
0.0
  0
LINE
  5
3E28
330
1E
100
AcDbEntity
  8
3
100
AcDbLine
 10
19.8198960574557
 20
7.241052330684055
 30
0.0
 11
20.00000374035433
 21
7.241052330684055
 31
0.0
  0
LINE
  5
3E29
330
1E
100
AcDbEntity
  8
3
100
AcDbLine
 10
20.18011142325295
 20
7.241052330684055
 30
0.0
 11
20.35726652118602
 21
7.241052330684055
 31
0.0
  0
LINE
  5
3E2A
330
1E
100
AcDbEntity
  8
3
100
AcDbLine
 10
20.53737420408464
 20
7.241052330684055
 30
0.0
 11
20.71748188698327
 21
7.241052330684055
 31
0.0
  0
LINE
  5
3E2B
330
1E
100
AcDbEntity
  8
3
100
AcDbLine
 10
20.89463698491634
 20
7.241052330684055
 30
0.0
 11
21.07474466781496
 21
7.241052330684055
 31
0.0
  0
LINE
  5
3E31
330
1E
100
AcDbEntity
  8
3
100
AcDbLine
 10
3.784407109547244
 20
7.241052330684055
 30
0.0
 11
3.784407109547244
 21
7.300104029995081
 31
0.0
  0
LINE
  5
3E32
330
1E
100
AcDbEntity
  8
3
100
AcDbLine
 10
21.12493861222933
 20
7.592409941584645
 30
0.0
 11
4.00289839699803
 21
7.592409941584645
 31
0.0
  0
LINE
  5
3E38
330
1E
100
AcDbEntity
  8
3
100
AcDbLine
 10
3.940894112721455
 20
7.424112598548229
 30
0.0
 11
3.940894112721455
 21
7.530405657308069
 31
0.0
  0
LINE
  5
3E3E
330
1E
100
AcDbEntity
  8
3
100
AcDbLine
 10
3.846411393823818
 20
7.362108314271653
 30
0.0
 11
3.875937243479329
 21
7.362108314271653
 31
0.0
  0
LINE
  5
3E49
330
1E
100
AcDbEntity
  8
3
100
AcDbLine
 10
21.25189976574803
 20
7.362108314271653
 30
0.0
 11
21.28142561540354
 21
7.362108314271653
 31
0.0
  0
LINE
  5
3E4F
330
1E
100
AcDbEntity
  8
3
100
AcDbLine
 10
21.18989548147145
 20
7.530405657308069
 30
0.0
 11
21.18989548147145
 21
7.424112598548229
 31
0.0
  0
LINE
  5
3E55
330
1E
100
AcDbEntity
  8
3
100
AcDbLine
 10
4.321777573277557
 20
7.152474781717518
 30
0.0
 11
4.321777573277557
 21
7.167237706545276
 31
0.0
  0
LINE
  5
3E56
330
1E
100
AcDbEntity
  8
3
100
AcDbLine
 10
4.321777573277557
 20
7.196763556200787
 30
0.0
 11
4.321777573277557
 21
7.211526481028545
 31
0.0
  0
LINE
  5
3E57
330
1E
100
AcDbEntity
  8
3
100
AcDbLine
 10
7.870784701870077
 20
7.152474781717518
 30
0.0
 11
7.870784701870077
 21
7.167237706545276
 31
0.0
  0
LINE
  5
3E58
330
1E
100
AcDbEntity
  8
3
100
AcDbLine
 10
7.870784701870077
 20
7.196763556200787
 30
0.0
 11
7.870784701870077
 21
7.211526481028545
 31
0.0
  0
LINE
  5
3E59
330
1E
100
AcDbEntity
  8
3
100
AcDbLine
 10
8.632551622982282
 20
7.152474781717518
 30
0.0
 11
8.632551622982282
 21
7.167237706545276
 31
0.0
  0
LINE
  5
3E5A
330
1E
100
AcDbEntity
  8
3
100
AcDbLine
 10
8.632551622982282
 20
7.196763556200787
 30
0.0
 11
8.632551622982282
 21
7.211526481028545
 31
0.0
  0
LINE
  5
3E5B
330
1E
100
AcDbEntity
  8
3
100
AcDbLine
 10
12.1815587515748
 20
7.152474781717518
 30
0.0
 11
12.1815587515748
 21
7.167237706545276
 31
0.0
  0
LINE
  5
3E5C
330
1E
100
AcDbEntity
  8
3
100
AcDbLine
 10
12.1815587515748
 20
7.196763556200787
 30
0.0
 11
12.1815587515748
 21
7.211526481028545
 31
0.0
  0
LINE
  5
3E5D
330
1E
100
AcDbEntity
  8
3
100
AcDbLine
 10
12.94627825765255
 20
7.152474781717518
 30
0.0
 11
12.94627825765255
 21
7.167237706545276
 31
0.0
  0
LINE
  5
3E5E
330
1E
100
AcDbEntity
  8
3
100
AcDbLine
 10
12.94627825765255
 20
7.196763556200787
 30
0.0
 11
12.94627825765255
 21
7.211526481028545
 31
0.0
  0
LINE
  5
3E5F
330
1E
100
AcDbEntity
  8
3
100
AcDbLine
 10
16.49528538624507
 20
7.152474781717518
 30
0.0
 11
16.49528538624507
 21
7.167237706545276
 31
0.0
  0
LINE
  5
3E60
330
1E
100
AcDbEntity
  8
3
100
AcDbLine
 10
16.49528538624507
 20
7.196763556200787
 30
0.0
 11
16.49528538624507
 21
7.211526481028545
 31
0.0
  0
LINE
  5
3E61
330
1E
100
AcDbEntity
  8
3
100
AcDbLine
 10
17.25705230735728
 20
7.152474781717518
 30
0.0
 11
17.25705230735728
 21
7.167237706545276
 31
0.0
  0
LINE
  5
3E62
330
1E
100
AcDbEntity
  8
3
100
AcDbLine
 10
17.25705230735728
 20
7.196763556200787
 30
0.0
 11
17.25705230735728
 21
7.211526481028545
 31
0.0
  0
LINE
  5
3E63
330
1E
100
AcDbEntity
  8
3
100
AcDbLine
 10
20.8060594359498
 20
7.152474781717518
 30
0.0
 11
20.8060594359498
 21
7.167237706545276
 31
0.0
  0
LINE
  5
3E64
330
1E
100
AcDbEntity
  8
3
100
AcDbLine
 10
20.8060594359498
 20
7.196763556200787
 30
0.0
 11
20.8060594359498
 21
7.211526481028545
 31
0.0
  0
LINE
  5
3E65
330
1E
100
AcDbEntity
  8
3
100
AcDbLine
 10
3.468480518233267
 20
7.211526481028545
 30
0.0
 11
3.468480518233267
 21
7.196763556200787
 31
0.0
  0
LINE
  5
3E66
330
1E
100
AcDbEntity
  8
3
100
AcDbLine
 10
3.468480518233267
 20
7.167237706545276
 30
0.0
 11
3.468480518233267
 21
7.152474781717518
 31
0.0
  0
LINE
  5
3E67
330
1E
100
AcDbEntity
  8
3
100
AcDbLine
 10
3.35037711961122
 20
7.211526481028545
 30
0.0
 11
3.35037711961122
 21
7.196763556200787
 31
0.0
  0
LINE
  5
3E68
330
1E
100
AcDbEntity
  8
3
100
AcDbLine
 10
3.35037711961122
 20
7.167237706545276
 30
0.0
 11
3.35037711961122
 21
7.152474781717518
 31
0.0
  0
LINE
  5
3E69
330
1E
100
AcDbEntity
  8
3
100
AcDbLine
 10
3.35037711961122
 20
7.211526481028545
 30
0.0
 11
3.35037711961122
 21
7.196763556200787
 31
0.0
  0
LINE
  5
3E6A
330
1E
100
AcDbEntity
  8
3
100
AcDbLine
 10
3.35037711961122
 20
7.167237706545276
 30
0.0
 11
3.35037711961122
 21
7.152474781717518
 31
0.0
  0
LINE
  5
3E6B
330
1E
100
AcDbEntity
  8
3
100
AcDbLine
 10
3.468480518233267
 20
7.211526481028545
 30
0.0
 11
3.468480518233267
 21
7.196763556200787
 31
0.0
  0
LINE
  5
3E6C
330
1E
100
AcDbEntity
  8
3
100
AcDbLine
 10
3.468480518233267
 20
7.167237706545276
 30
0.0
 11
3.468480518233267
 21
7.152474781717518
 31
0.0
  0
LINE
  5
3E6D
330
1E
100
AcDbEntity
  8
3
100
AcDbLine
 10
3.468480518233267
 20
7.211526481028545
 30
0.0
 11
3.468480518233267
 21
7.196763556200787
 31
0.0
  0
LINE
  5
3E6E
330
1E
100
AcDbEntity
  8
3
100
AcDbLine
 10
3.468480518233267
 20
7.167237706545276
 30
0.0
 11
3.468480518233267
 21
7.152474781717518
 31
0.0
  0
LINE
  5
3E6F
330
1E
100
AcDbEntity
  8
3
100
AcDbLine
 10
3.35037711961122
 20
7.211526481028545
 30
0.0
 11
3.35037711961122
 21
7.196763556200787
 31
0.0
  0
LINE
  5
3E70
330
1E
100
AcDbEntity
  8
3
100
AcDbLine
 10
3.35037711961122
 20
7.167237706545276
 30
0.0
 11
3.35037711961122
 21
7.152474781717518
 31
0.0
  0
LINE
  5
3E71
330
1E
100
AcDbEntity
  8
3
100
AcDbLine
 10
3.35037711961122
 20
7.211526481028545
 30
0.0
 11
3.35037711961122
 21
7.196763556200787
 31
0.0
  0
LINE
  5
3E72
330
1E
100
AcDbEntity
  8
3
100
AcDbLine
 10
3.35037711961122
 20
7.167237706545276
 30
0.0
 11
3.35037711961122
 21
7.152474781717518
 31
0.0
  0
LINE
  5
3E73
330
1E
100
AcDbEntity
  8
3
100
AcDbLine
 10
3.468480518233267
 20
7.211526481028545
 30
0.0
 11
3.468480518233267
 21
7.196763556200787
 31
0.0
  0
LINE
  5
3E74
330
1E
100
AcDbEntity
  8
3
100
AcDbLine
 10
3.468480518233267
 20
7.167237706545276
 30
0.0
 11
3.468480518233267
 21
7.152474781717518
 31
0.0
  0
LINE
  5
3E75
330
1E
100
AcDbEntity
  8
3
100
AcDbLine
 10
21.77745988961614
 20
7.211526481028545
 30
0.0
 11
21.77745988961614
 21
7.196763556200787
 31
0.0
  0
LINE
  5
3E76
330
1E
100
AcDbEntity
  8
3
100
AcDbLine
 10
21.77745988961614
 20
7.167237706545276
 30
0.0
 11
21.77745988961614
 21
7.152474781717518
 31
0.0
  0
LINE
  5
3E77
330
1E
100
AcDbEntity
  8
3
100
AcDbLine
 10
21.65935649099409
 20
7.211526481028545
 30
0.0
 11
21.65935649099409
 21
7.196763556200787
 31
0.0
  0
LINE
  5
3E78
330
1E
100
AcDbEntity
  8
3
100
AcDbLine
 10
21.65935649099409
 20
7.167237706545276
 30
0.0
 11
21.65935649099409
 21
7.152474781717518
 31
0.0
  0
LINE
  5
3E79
330
1E
100
AcDbEntity
  8
3
100
AcDbLine
 10
21.65935649099409
 20
7.211526481028545
 30
0.0
 11
21.65935649099409
 21
7.196763556200787
 31
0.0
  0
LINE
  5
3E7A
330
1E
100
AcDbEntity
  8
3
100
AcDbLine
 10
21.65935649099409
 20
7.167237706545276
 30
0.0
 11
21.65935649099409
 21
7.152474781717518
 31
0.0
  0
LINE
  5
3E7B
330
1E
100
AcDbEntity
  8
3
100
AcDbLine
 10
21.77745988961614
 20
7.211526481028545
 30
0.0
 11
21.77745988961614
 21
7.196763556200787
 31
0.0
  0
LINE
  5
3E7C
330
1E
100
AcDbEntity
  8
3
100
AcDbLine
 10
21.77745988961614
 20
7.167237706545276
 30
0.0
 11
21.77745988961614
 21
7.152474781717518
 31
0.0
  0
LINE
  5
3E7D
330
1E
100
AcDbEntity
  8
3
100
AcDbLine
 10
21.77745988961614
 20
7.211526481028545
 30
0.0
 11
21.77745988961614
 21
7.196763556200787
 31
0.0
  0
LINE
  5
3E7E
330
1E
100
AcDbEntity
  8
3
100
AcDbLine
 10
21.77745988961614
 20
7.167237706545276
 30
0.0
 11
21.77745988961614
 21
7.152474781717518
 31
0.0
  0
LINE
  5
3E7F
330
1E
100
AcDbEntity
  8
3
100
AcDbLine
 10
21.65935649099409
 20
7.211526481028545
 30
0.0
 11
21.65935649099409
 21
7.196763556200787
 31
0.0
  0
LINE
  5
3E80
330
1E
100
AcDbEntity
  8
3
100
AcDbLine
 10
21.65935649099409
 20
7.167237706545276
 30
0.0
 11
21.65935649099409
 21
7.152474781717518
 31
0.0
  0
LINE
  5
3E81
330
1E
100
AcDbEntity
  8
3
100
AcDbLine
 10
21.65935649099409
 20
7.211526481028545
 30
0.0
 11
21.65935649099409
 21
7.196763556200787
 31
0.0
  0
LINE
  5
3E82
330
1E
100
AcDbEntity
  8
3
100
AcDbLine
 10
21.65935649099409
 20
7.167237706545276
 30
0.0
 11
21.65935649099409
 21
7.152474781717518
 31
0.0
  0
LINE
  5
3E83
330
1E
100
AcDbEntity
  8
3
100
AcDbLine
 10
21.77745988961614
 20
7.211526481028545
 30
0.0
 11
21.77745988961614
 21
7.196763556200787
 31
0.0
  0
LINE
  5
3E84
330
1E
100
AcDbEntity
  8
3
100
AcDbLine
 10
21.77745988961614
 20
7.167237706545276
 30
0.0
 11
21.77745988961614
 21
7.152474781717518
 31
0.0
  0
LINE
  5
3E88
330
1E
100
AcDbEntity
  8
3
100
AcDbLine
 10
21.34342989968011
 20
7.241052330684055
 30
0.0
 11
3.784407109547244
 21
7.241052330684055
 31
0.0
  0
LINE
  5
3E89
330
1E
100
AcDbEntity
  8
3
100
AcDbLine
 10
3.784407109547244
 20
7.241052330684055
 30
0.0
 11
3.872984658513779
 21
7.241052330684055
 31
0.0
  0
LINE
  5
3E8A
330
1E
100
AcDbEntity
  8
3
100
AcDbLine
 10
8.632551622982282
 20
0.9845247886811021
 30
0.0
 11
12.1815587515748
 21
0.9845247886811021
 31
0.0
  0
LINE
  5
3E8B
330
1E
100
AcDbEntity
  8
3
100
AcDbLine
 10
12.1815587515748
 20
0.9845247886811021
 30
0.0
 11
12.1815587515748
 21
-0.4150004849901566
 31
0.0
  0
LINE
  5
3E8C
330
1E
100
AcDbEntity
  8
3
100
AcDbLine
 10
4.321777573277557
 20
0.9845247886811021
 30
0.0
 11
7.870784701870077
 21
0.9845247886811021
 31
0.0
  0
LINE
  5
3E8D
330
1E
100
AcDbEntity
  8
3
100
AcDbLine
 10
7.870784701870077
 20
0.9845247886811021
 30
0.0
 11
7.870784701870077
 21
-0.4150004849901566
 31
0.0
  0
LINE
  5
3E8E
330
1E
100
AcDbEntity
  8
3
100
AcDbLine
 10
3.066928962918306
 20
-0.5153883738188974
 30
0.0
 11
3.084644472711613
 21
-0.5567245633366138
 31
0.0
  0
LINE
  5
3E8F
330
1E
100
AcDbEntity
  8
3
100
AcDbLine
 10
3.084644472711613
 20
-0.5567245633366138
 30
0.0
 11
3.12598066222933
 21
-0.5744400731299209
 31
0.0
  0
LINE
  5
3E90
330
1E
100
AcDbEntity
  8
3
100
AcDbLine
 10
3.35037711961122
 20
-0.202414367470471
 30
0.0
 11
3.291325420300196
 21
-0.2171772922982278
 31
0.0
  0
LINE
  5
3E91
330
1E
100
AcDbEntity
  8
3
100
AcDbLine
 10
3.291325420300196
 20
-0.2171772922982278
 30
0.0
 11
3.241131475885826
 21
-0.2555608968503922
 31
0.0
  0
LINE
  5
3E92
330
1E
100
AcDbEntity
  8
3
100
AcDbLine
 10
3.241131475885826
 20
-0.2555608968503922
 30
0.0
 11
3.214558211195865
 21
-0.3116600111958654
 31
0.0
  0
LINE
  5
3E93
330
1E
100
AcDbEntity
  8
3
100
AcDbLine
 10
3.214558211195865
 20
-0.3116600111958654
 30
0.0
 11
3.214558211195865
 21
-0.3707117105068889
 31
0.0
  0
LINE
  5
3E94
330
1E
100
AcDbEntity
  8
3
100
AcDbLine
 10
3.214558211195865
 20
-0.3707117105068889
 30
0.0
 11
3.241131475885826
 21
-0.4268108248523613
 31
0.0
  0
LINE
  5
3E95
330
1E
100
AcDbEntity
  8
3
100
AcDbLine
 10
3.241131475885826
 20
-0.4268108248523613
 30
0.0
 11
3.291325420300196
 21
-0.4651944294045265
 31
0.0
  0
LINE
  5
3E96
330
1E
100
AcDbEntity
  8
3
100
AcDbLine
 10
3.291325420300196
 20
-0.4651944294045265
 30
0.0
 11
3.35037711961122
 21
-0.4799573542322833
 31
0.0
  0
LINE
  5
3E97
330
1E
100
AcDbEntity
  8
3
100
AcDbLine
 10
3.35037711961122
 20
1.049481657923229
 30
0.0
 11
3.291325420300196
 21
1.034718733095472
 31
0.0
  0
LINE
  5
3E98
330
1E
100
AcDbEntity
  8
3
100
AcDbLine
 10
3.291325420300196
 20
1.034718733095472
 30
0.0
 11
3.241131475885826
 21
0.9963351285433068
 31
0.0
  0
LINE
  5
3E99
330
1E
100
AcDbEntity
  8
3
100
AcDbLine
 10
3.241131475885826
 20
0.9963351285433068
 30
0.0
 11
3.214558211195865
 21
0.9402360141978345
 31
0.0
  0
LINE
  5
3E9A
330
1E
100
AcDbEntity
  8
3
100
AcDbLine
 10
3.214558211195865
 20
0.9402360141978345
 30
0.0
 11
3.214558211195865
 21
0.8811843148868137
 31
0.0
  0
LINE
  5
3E9B
330
1E
100
AcDbEntity
  8
3
100
AcDbLine
 10
3.214558211195865
 20
0.8811843148868137
 30
0.0
 11
3.241131475885826
 21
0.8250852005413378
 31
0.0
  0
LINE
  5
3E9C
330
1E
100
AcDbEntity
  8
3
100
AcDbLine
 10
3.241131475885826
 20
0.8250852005413378
 30
0.0
 11
3.291325420300196
 21
0.7867015959891761
 31
0.0
  0
LINE
  5
3E9D
330
1E
100
AcDbEntity
  8
3
100
AcDbLine
 10
3.291325420300196
 20
0.7867015959891761
 30
0.0
 11
3.35037711961122
 21
0.7719386711614176
 31
0.0
  0
LINE
  5
3E9E
330
1E
100
AcDbEntity
  8
3
100
AcDbLine
 10
3.12598066222933
 20
1.143964376820867
 30
0.0
 11
3.084644472711613
 21
1.126248867027558
 31
0.0
  0
LINE
  5
3E9F
330
1E
100
AcDbEntity
  8
3
100
AcDbLine
 10
3.084644472711613
 20
1.126248867027558
 30
0.0
 11
3.066928962918306
 21
1.084912677509843
 31
0.0
  0
LINE
  5
3EA0
330
1E
100
AcDbEntity
  8
3
100
AcDbLine
 10
3.784407109547244
 20
-0.4858625241633856
 30
0.0
 11
3.784407109547244
 21
-0.5301512986466524
 31
0.0
  0
LINE
  5
3EA1
330
1E
100
AcDbEntity
  8
3
100
AcDbLine
 10
3.784407109547244
 20
-0.5301512986466524
 30
0.0
 11
3.784407109547244
 21
-0.5626297332677162
 31
0.0
  0
LINE
  5
3EA2
330
1E
100
AcDbEntity
  8
3
100
AcDbLine
 10
3.784407109547244
 20
-0.5626297332677162
 30
0.0
 11
3.784407109547244
 21
-0.5744400731299209
 31
0.0
  0
LINE
  5
3EA3
330
1E
100
AcDbEntity
  8
3
100
AcDbLine
 10
3.784407109547244
 20
-0.4858625241633856
 30
0.0
 11
3.766691599753936
 21
-0.4445263346456683
 31
0.0
  0
LINE
  5
3EA4
330
1E
100
AcDbEntity
  8
3
100
AcDbLine
 10
3.766691599753936
 20
-0.4445263346456683
 30
0.0
 11
3.72535541023622
 21
-0.4268108248523613
 31
0.0
  0
LINE
  5
3EA5
330
1E
100
AcDbEntity
  8
3
100
AcDbLine
 10
3.72535541023622
 20
-0.4268108248523613
 30
0.0
 11
3.684019220718504
 21
-0.4445263346456683
 31
0.0
  0
LINE
  5
3EA6
330
1E
100
AcDbEntity
  8
3
100
AcDbLine
 10
3.684019220718504
 20
-0.4445263346456683
 30
0.0
 11
3.666303710925196
 21
-0.4858625241633856
 31
0.0
  0
LINE
  5
3EA7
330
1E
100
AcDbEntity
  8
3
100
AcDbLine
 10
3.468480518233267
 20
-0.4799573542322833
 30
0.0
 11
3.527532217544291
 21
-0.4651944294045265
 31
0.0
  0
LINE
  5
3EA8
330
1E
100
AcDbEntity
  8
3
100
AcDbLine
 10
3.527532217544291
 20
-0.4651944294045265
 30
0.0
 11
3.57772616195866
 21
-0.4268108248523613
 31
0.0
  0
LINE
  5
3EA9
330
1E
100
AcDbEntity
  8
3
100
AcDbLine
 10
3.57772616195866
 20
-0.4268108248523613
 30
0.0
 11
3.604299426648621
 21
-0.3707117105068889
 31
0.0
  0
LINE
  5
3EAA
330
1E
100
AcDbEntity
  8
3
100
AcDbLine
 10
3.604299426648621
 20
-0.3707117105068889
 30
0.0
 11
3.604299426648621
 21
-0.3116600111958654
 31
0.0
  0
LINE
  5
3EAB
330
1E
100
AcDbEntity
  8
3
100
AcDbLine
 10
3.604299426648621
 20
-0.3116600111958654
 30
0.0
 11
3.57772616195866
 21
-0.2555608968503922
 31
0.0
  0
LINE
  5
3EAC
330
1E
100
AcDbEntity
  8
3
100
AcDbLine
 10
3.57772616195866
 20
-0.2555608968503922
 30
0.0
 11
3.527532217544291
 21
-0.2171772922982278
 31
0.0
  0
LINE
  5
3EAD
330
1E
100
AcDbEntity
  8
3
100
AcDbLine
 10
3.527532217544291
 20
-0.2171772922982278
 30
0.0
 11
3.468480518233267
 21
-0.202414367470471
 31
0.0
  0
LINE
  5
3EAE
330
1E
100
AcDbEntity
  8
3
100
AcDbLine
 10
3.468480518233267
 20
0.7719386711614176
 30
0.0
 11
3.527532217544291
 21
0.7867015959891761
 31
0.0
  0
LINE
  5
3EAF
330
1E
100
AcDbEntity
  8
3
100
AcDbLine
 10
3.527532217544291
 20
0.7867015959891761
 30
0.0
 11
3.57772616195866
 21
0.8250852005413378
 31
0.0
  0
LINE
  5
3EB0
330
1E
100
AcDbEntity
  8
3
100
AcDbLine
 10
3.57772616195866
 20
0.8250852005413378
 30
0.0
 11
3.604299426648621
 21
0.8811843148868137
 31
0.0
  0
LINE
  5
3EB1
330
1E
100
AcDbEntity
  8
3
100
AcDbLine
 10
3.604299426648621
 20
0.8811843148868137
 30
0.0
 11
3.604299426648621
 21
0.9402360141978345
 31
0.0
  0
LINE
  5
3EB2
330
1E
100
AcDbEntity
  8
3
100
AcDbLine
 10
3.604299426648621
 20
0.9402360141978345
 30
0.0
 11
3.57772616195866
 21
0.9963351285433068
 31
0.0
  0
LINE
  5
3EB3
330
1E
100
AcDbEntity
  8
3
100
AcDbLine
 10
3.57772616195866
 20
0.9963351285433068
 30
0.0
 11
3.527532217544291
 21
1.034718733095472
 31
0.0
  0
LINE
  5
3EB4
330
1E
100
AcDbEntity
  8
3
100
AcDbLine
 10
3.527532217544291
 20
1.034718733095472
 30
0.0
 11
3.468480518233267
 21
1.049481657923229
 31
0.0
  0
LINE
  5
3EB5
330
1E
100
AcDbEntity
  8
3
100
AcDbLine
 10
3.666303710925196
 20
1.05538682785433
 30
0.0
 11
3.684019220718504
 21
1.014050638336613
 31
0.0
  0
LINE
  5
3EB6
330
1E
100
AcDbEntity
  8
3
100
AcDbLine
 10
3.684019220718504
 20
1.014050638336613
 30
0.0
 11
3.72535541023622
 21
0.9963351285433068
 31
0.0
  0
LINE
  5
3EB7
330
1E
100
AcDbEntity
  8
3
100
AcDbLine
 10
3.72535541023622
 20
0.9963351285433068
 30
0.0
 11
3.766691599753936
 21
1.014050638336613
 31
0.0
  0
LINE
  5
3EB8
330
1E
100
AcDbEntity
  8
3
100
AcDbLine
 10
3.766691599753936
 20
1.014050638336613
 30
0.0
 11
3.784407109547244
 21
1.05538682785433
 31
0.0
  0
LINE
  5
3EB9
330
1E
100
AcDbEntity
  8
3
100
AcDbLine
 10
4.02651907672244
 20
0.2316156224655517
 30
0.0
 11
4.061950096309054
 21
0.187326847982284
 31
0.0
  0
LINE
  5
3EBA
330
1E
100
AcDbEntity
  8
3
100
AcDbLine
 10
4.061950096309054
 20
0.187326847982284
 30
0.0
 11
4.112144040723425
 21
0.1637061682578746
 31
0.0
  0
LINE
  5
3EBB
330
1E
100
AcDbEntity
  8
3
100
AcDbLine
 10
4.112144040723425
 20
0.1637061682578746
 30
0.0
 11
4.165290570103346
 21
0.1637061682578746
 31
0.0
  0
LINE
  5
3EBC
330
1E
100
AcDbEntity
  8
3
100
AcDbLine
 10
4.165290570103346
 20
0.1637061682578746
 30
0.0
 11
4.215484514517715
 21
0.187326847982284
 31
0.0
  0
LINE
  5
3EBD
330
1E
100
AcDbEntity
  8
3
100
AcDbLine
 10
4.215484514517715
 20
0.187326847982284
 30
0.0
 11
4.250915534104329
 21
0.2316156224655517
 31
0.0
  0
LINE
  5
3EBE
330
1E
100
AcDbEntity
  8
3
100
AcDbLine
 10
4.250915534104329
 20
0.2316156224655517
 30
0.0
 11
4.262725873966534
 21
0.2847621518454728
 31
0.0
  0
LINE
  5
3EBF
330
1E
100
AcDbEntity
  8
3
100
AcDbLine
 10
4.262725873966534
 20
0.2847621518454728
 30
0.0
 11
4.250915534104329
 21
0.337908681225394
 31
0.0
  0
LINE
  5
3EC0
330
1E
100
AcDbEntity
  8
3
100
AcDbLine
 10
4.250915534104329
 20
0.337908681225394
 30
0.0
 11
4.215484514517715
 21
0.3821974557086625
 31
0.0
  0
LINE
  5
3EC1
330
1E
100
AcDbEntity
  8
3
100
AcDbLine
 10
4.215484514517715
 20
0.3821974557086625
 30
0.0
 11
4.165290570103346
 21
0.4058181354330719
 31
0.0
  0
LINE
  5
3EC2
330
1E
100
AcDbEntity
  8
3
100
AcDbLine
 10
4.165290570103346
 20
0.4058181354330719
 30
0.0
 11
4.112144040723425
 21
0.4058181354330719
 31
0.0
  0
LINE
  5
3EC3
330
1E
100
AcDbEntity
  8
3
100
AcDbLine
 10
4.112144040723425
 20
0.4058181354330719
 30
0.0
 11
4.061950096309054
 21
0.3821974557086625
 31
0.0
  0
LINE
  5
3EC4
330
1E
100
AcDbEntity
  8
3
100
AcDbLine
 10
4.061950096309054
 20
0.3821974557086625
 30
0.0
 11
4.02651907672244
 21
0.337908681225394
 31
0.0
  0
LINE
  5
3EC5
330
1E
100
AcDbEntity
  8
3
100
AcDbLine
 10
4.02651907672244
 20
0.337908681225394
 30
0.0
 11
4.014708736860235
 21
0.2847621518454728
 31
0.0
  0
LINE
  5
3EC6
330
1E
100
AcDbEntity
  8
3
100
AcDbLine
 10
3.57772616195866
 20
0.1991371878444887
 30
0.0
 11
3.604299426648621
 21
0.2552363021899611
 31
0.0
  0
LINE
  5
3EC7
330
1E
100
AcDbEntity
  8
3
100
AcDbLine
 10
3.604299426648621
 20
0.2552363021899611
 30
0.0
 11
3.604299426648621
 21
0.3142880015009846
 31
0.0
  0
LINE
  5
3EC8
330
1E
100
AcDbEntity
  8
3
100
AcDbLine
 10
3.604299426648621
 20
0.3142880015009846
 30
0.0
 11
3.57772616195866
 21
0.3703871158464578
 31
0.0
  0
LINE
  5
3EC9
330
1E
100
AcDbEntity
  8
3
100
AcDbLine
 10
3.57772616195866
 20
0.3703871158464578
 30
0.0
 11
3.527532217544291
 21
0.4087707203986222
 31
0.0
  0
LINE
  5
3ECA
330
1E
100
AcDbEntity
  8
3
100
AcDbLine
 10
3.527532217544291
 20
0.4087707203986222
 30
0.0
 11
3.468480518233267
 21
0.423533645226379
 31
0.0
  0
LINE
  5
3ECB
330
1E
100
AcDbEntity
  8
3
100
AcDbLine
 10
3.468480518233267
 20
0.1459906584645676
 30
0.0
 11
3.527532217544291
 21
0.1607535832923235
 31
0.0
  0
LINE
  5
3ECC
330
1E
100
AcDbEntity
  8
3
100
AcDbLine
 10
3.527532217544291
 20
0.1607535832923235
 30
0.0
 11
3.57772616195866
 21
0.1991371878444887
 31
0.0
  0
LINE
  5
3ECD
330
1E
100
AcDbEntity
  8
3
100
AcDbLine
 10
3.784407109547244
 20
1.05538682785433
 30
0.0
 11
3.784407109547244
 21
1.099675602337598
 31
0.0
  0
LINE
  5
3ECE
330
1E
100
AcDbEntity
  8
3
100
AcDbLine
 10
3.784407109547244
 20
1.099675602337598
 30
0.0
 11
3.784407109547244
 21
1.132154036958662
 31
0.0
  0
LINE
  5
3ECF
330
1E
100
AcDbEntity
  8
3
100
AcDbLine
 10
3.784407109547244
 20
1.132154036958662
 30
0.0
 11
3.784407109547244
 21
1.143964376820867
 31
0.0
  0
LINE
  5
3ED0
330
1E
100
AcDbEntity
  8
3
100
AcDbLine
 10
3.784407109547244
 20
1.143964376820867
 30
0.0
 11
3.784407109547244
 21
1.129201451993109
 31
0.0
  0
LINE
  5
3ED1
330
1E
100
AcDbEntity
  8
3
100
AcDbLine
 10
8.576452508636808
 20
0.2847621518454728
 30
0.0
 11
8.564642168774604
 21
0.337908681225394
 31
0.0
  0
LINE
  5
3ED2
330
1E
100
AcDbEntity
  8
3
100
AcDbLine
 10
8.564642168774604
 20
0.337908681225394
 30
0.0
 11
8.52921114918799
 21
0.3821974557086625
 31
0.0
  0
LINE
  5
3ED3
330
1E
100
AcDbEntity
  8
3
100
AcDbLine
 10
8.52921114918799
 20
0.3821974557086625
 30
0.0
 11
8.47901720477362
 21
0.4058181354330719
 31
0.0
  0
LINE
  5
3ED4
330
1E
100
AcDbEntity
  8
3
100
AcDbLine
 10
8.47901720477362
 20
0.4058181354330719
 30
0.0
 11
8.425870675393698
 21
0.4058181354330719
 31
0.0
  0
LINE
  5
3ED5
330
1E
100
AcDbEntity
  8
3
100
AcDbLine
 10
8.425870675393698
 20
0.4058181354330719
 30
0.0
 11
8.375676730979328
 21
0.3821974557086625
 31
0.0
  0
LINE
  5
3ED6
330
1E
100
AcDbEntity
  8
3
100
AcDbLine
 10
8.375676730979328
 20
0.3821974557086625
 30
0.0
 11
8.340245711392714
 21
0.337908681225394
 31
0.0
  0
LINE
  5
3ED7
330
1E
100
AcDbEntity
  8
3
100
AcDbLine
 10
8.340245711392714
 20
0.337908681225394
 30
0.0
 11
8.32843537153051
 21
0.2847621518454728
 31
0.0
  0
LINE
  5
3ED8
330
1E
100
AcDbEntity
  8
3
100
AcDbLine
 10
8.32843537153051
 20
0.2847621518454728
 30
0.0
 11
8.340245711392714
 21
0.2316156224655517
 31
0.0
  0
LINE
  5
3ED9
330
1E
100
AcDbEntity
  8
3
100
AcDbLine
 10
8.340245711392714
 20
0.2316156224655517
 30
0.0
 11
8.375676730979328
 21
0.187326847982284
 31
0.0
  0
LINE
  5
3EDA
330
1E
100
AcDbEntity
  8
3
100
AcDbLine
 10
8.375676730979328
 20
0.187326847982284
 30
0.0
 11
8.425870675393698
 21
0.1637061682578746
 31
0.0
  0
LINE
  5
3EDB
330
1E
100
AcDbEntity
  8
3
100
AcDbLine
 10
8.425870675393698
 20
0.1637061682578746
 30
0.0
 11
8.47901720477362
 21
0.1637061682578746
 31
0.0
  0
LINE
  5
3EDC
330
1E
100
AcDbEntity
  8
3
100
AcDbLine
 10
8.47901720477362
 20
0.1637061682578746
 30
0.0
 11
8.52921114918799
 21
0.187326847982284
 31
0.0
  0
LINE
  5
3EDD
330
1E
100
AcDbEntity
  8
3
100
AcDbLine
 10
8.52921114918799
 20
0.187326847982284
 30
0.0
 11
8.564642168774604
 21
0.2316156224655517
 31
0.0
  0
LINE
  5
3EDE
330
1E
100
AcDbEntity
  8
3
100
AcDbLine
 10
8.564642168774604
 20
0.2316156224655517
 30
0.0
 11
8.576452508636808
 21
0.2847621518454728
 31
0.0
  0
LINE
  5
3EDF
330
1E
100
AcDbEntity
  8
3
100
AcDbLine
 10
8.080418234424211
 20
0.1637061682578746
 30
0.0
 11
8.13061217883858
 21
0.187326847982284
 31
0.0
  0
LINE
  5
3EE0
330
1E
100
AcDbEntity
  8
3
100
AcDbLine
 10
8.13061217883858
 20
0.187326847982284
 30
0.0
 11
8.166043198425194
 21
0.2316156224655517
 31
0.0
  0
LINE
  5
3EE1
330
1E
100
AcDbEntity
  8
3
100
AcDbLine
 10
8.166043198425194
 20
0.2316156224655517
 30
0.0
 11
8.177853538287399
 21
0.2847621518454728
 31
0.0
  0
LINE
  5
3EE2
330
1E
100
AcDbEntity
  8
3
100
AcDbLine
 10
8.177853538287399
 20
0.2847621518454728
 30
0.0
 11
8.166043198425194
 21
0.337908681225394
 31
0.0
  0
LINE
  5
3EE3
330
1E
100
AcDbEntity
  8
3
100
AcDbLine
 10
8.166043198425194
 20
0.337908681225394
 30
0.0
 11
8.13061217883858
 21
0.3821974557086625
 31
0.0
  0
LINE
  5
3EE4
330
1E
100
AcDbEntity
  8
3
100
AcDbLine
 10
8.13061217883858
 20
0.3821974557086625
 30
0.0
 11
8.080418234424211
 21
0.4058181354330719
 31
0.0
  0
LINE
  5
3EE5
330
1E
100
AcDbEntity
  8
3
100
AcDbLine
 10
8.080418234424211
 20
0.4058181354330719
 30
0.0
 11
8.027271705044288
 21
0.4058181354330719
 31
0.0
  0
LINE
  5
3EE6
330
1E
100
AcDbEntity
  8
3
100
AcDbLine
 10
8.027271705044288
 20
0.4058181354330719
 30
0.0
 11
7.977077760629919
 21
0.3821974557086625
 31
0.0
  0
LINE
  5
3EE7
330
1E
100
AcDbEntity
  8
3
100
AcDbLine
 10
7.977077760629919
 20
0.3821974557086625
 30
0.0
 11
7.941646741043305
 21
0.337908681225394
 31
0.0
  0
LINE
  5
3EE8
330
1E
100
AcDbEntity
  8
3
100
AcDbLine
 10
7.941646741043305
 20
0.337908681225394
 30
0.0
 11
7.9298364011811
 21
0.2847621518454728
 31
0.0
  0
LINE
  5
3EE9
330
1E
100
AcDbEntity
  8
3
100
AcDbLine
 10
7.9298364011811
 20
0.2847621518454728
 30
0.0
 11
7.941646741043305
 21
0.2316156224655517
 31
0.0
  0
LINE
  5
3EEA
330
1E
100
AcDbEntity
  8
3
100
AcDbLine
 10
7.941646741043305
 20
0.2316156224655517
 30
0.0
 11
7.977077760629919
 21
0.187326847982284
 31
0.0
  0
LINE
  5
3EEB
330
1E
100
AcDbEntity
  8
3
100
AcDbLine
 10
7.977077760629919
 20
0.187326847982284
 30
0.0
 11
8.027271705044288
 21
0.1637061682578746
 31
0.0
  0
LINE
  5
3EEC
330
1E
100
AcDbEntity
  8
3
100
AcDbLine
 10
8.027271705044288
 20
0.1637061682578746
 30
0.0
 11
8.080418234424211
 21
0.1637061682578746
 31
0.0
  0
LINE
  5
3EF0
330
1E
100
AcDbEntity
  8
3
100
AcDbLine
 10
3.663351125959645
 20
7.211526481028545
 30
0.0
 11
3.12598066222933
 21
7.211526481028545
 31
0.0
  0
LINE
  5
3EF1
330
1E
100
AcDbEntity
  8
3
100
AcDbLine
 10
3.12598066222933
 20
7.211526481028545
 30
0.0
 11
3.12598066222933
 21
7.152474781717518
 31
0.0
  0
LINE
  5
3EF2
330
1E
100
AcDbEntity
  8
3
100
AcDbLine
 10
3.063976377952756
 20
7.211526481028545
 30
0.0
 11
3.081691887746063
 21
7.211526481028545
 31
0.0
  0
LINE
  5
3EF3
330
1E
100
AcDbEntity
  8
3
100
AcDbLine
 10
3.081691887746063
 20
7.211526481028545
 30
0.0
 11
3.12598066222933
 21
7.211526481028545
 31
0.0
  0
LINE
  5
3EF4
330
1E
100
AcDbEntity
  8
3
100
AcDbLine
 10
3.12598066222933
 20
7.152474781717518
 30
0.0
 11
3.081691887746063
 21
7.152474781717518
 31
0.0
  0
LINE
  5
3EF5
330
1E
100
AcDbEntity
  8
3
100
AcDbLine
 10
3.081691887746063
 20
7.152474781717518
 30
0.0
 11
3.063976377952756
 21
7.152474781717518
 31
0.0
  0
LINE
  5
3EF6
330
1E
100
AcDbEntity
  8
3
100
AcDbLine
 10
3.875937243479329
 20
7.362108314271653
 30
0.0
 11
3.920226017962598
 21
7.379823824064961
 31
0.0
  0
LINE
  5
3EF7
330
1E
100
AcDbEntity
  8
3
100
AcDbLine
 10
3.920226017962598
 20
7.379823824064961
 30
0.0
 11
3.937941527755905
 21
7.424112598548229
 31
0.0
  0
LINE
  5
3EF8
330
1E
100
AcDbEntity
  8
3
100
AcDbLine
 10
3.846411393823818
 20
7.362108314271653
 30
0.0
 11
3.802122619340551
 21
7.344392804478344
 31
0.0
  0
LINE
  5
3EF9
330
1E
100
AcDbEntity
  8
3
100
AcDbLine
 10
3.802122619340551
 20
7.344392804478344
 30
0.0
 11
3.784407109547244
 21
7.300104029995081
 31
0.0
  0
LINE
  5
3EFA
330
1E
100
AcDbEntity
  8
3
100
AcDbLine
 10
3.784407109547244
 20
7.152474781717518
 30
0.0
 11
3.784407109547244
 21
7.164285121579726
 31
0.0
  0
LINE
  5
3EFB
330
1E
100
AcDbEntity
  8
3
100
AcDbLine
 10
3.784407109547244
 20
7.164285121579726
 30
0.0
 11
3.784407109547244
 21
7.196763556200787
 31
0.0
  0
LINE
  5
3EFC
330
1E
100
AcDbEntity
  8
3
100
AcDbLine
 10
3.784407109547244
 20
7.196763556200787
 30
0.0
 11
3.784407109547244
 21
7.241052330684055
 31
0.0
  0
LINE
  5
3EFD
330
1E
100
AcDbEntity
  8
3
100
AcDbLine
 10
3.72535541023622
 20
7.211526481028545
 30
0.0
 11
3.681066635752952
 21
7.211526481028545
 31
0.0
  0
LINE
  5
3EFE
330
1E
100
AcDbEntity
  8
3
100
AcDbLine
 10
3.681066635752952
 20
7.211526481028545
 30
0.0
 11
3.663351125959645
 21
7.211526481028545
 31
0.0
  0
LINE
  5
3EFF
330
1E
100
AcDbEntity
  8
3
100
AcDbLine
 10
3.784407109547244
 20
7.211526481028545
 30
0.0
 11
3.766691599753936
 21
7.211526481028545
 31
0.0
  0
LINE
  5
3F00
330
1E
100
AcDbEntity
  8
3
100
AcDbLine
 10
3.766691599753936
 20
7.211526481028545
 30
0.0
 11
3.72535541023622
 21
7.211526481028545
 31
0.0
  0
LINE
  5
3F01
330
1E
100
AcDbEntity
  8
3
100
AcDbLine
 10
3.663351125959645
 20
7.152474781717518
 30
0.0
 11
3.681066635752952
 21
7.152474781717518
 31
0.0
  0
LINE
  5
3F02
330
1E
100
AcDbEntity
  8
3
100
AcDbLine
 10
3.681066635752952
 20
7.152474781717518
 30
0.0
 11
3.72535541023622
 21
7.152474781717518
 31
0.0
  0
LINE
  5
3F03
330
1E
100
AcDbEntity
  8
3
100
AcDbLine
 10
3.72535541023622
 20
7.152474781717518
 30
0.0
 11
3.766691599753936
 21
7.152474781717518
 31
0.0
  0
LINE
  5
3F04
330
1E
100
AcDbEntity
  8
3
100
AcDbLine
 10
3.766691599753936
 20
7.152474781717518
 30
0.0
 11
3.784407109547244
 21
7.152474781717518
 31
0.0
  0
LINE
  5
3F05
330
1E
100
AcDbEntity
  8
3
100
AcDbLine
 10
4.00289839699803
 20
7.592409941584645
 30
0.0
 11
3.958609622514762
 21
7.574694431791337
 31
0.0
  0
LINE
  5
3F06
330
1E
100
AcDbEntity
  8
3
100
AcDbLine
 10
3.958609622514762
 20
7.574694431791337
 30
0.0
 11
3.940894112721455
 21
7.530405657308069
 31
0.0
  0
LINE
  5
3F07
330
1E
100
AcDbEntity
  8
3
100
AcDbLine
 10
17.25705230735728
 20
0.9845247886811021
 30
0.0
 11
20.8060594359498
 21
0.9845247886811021
 31
0.0
  0
LINE
  5
3F08
330
1E
100
AcDbEntity
  8
3
100
AcDbLine
 10
20.8060594359498
 20
0.9845247886811021
 30
0.0
 11
20.8060594359498
 21
-0.4150004849901566
 31
0.0
  0
LINE
  5
3F09
330
1E
100
AcDbEntity
  8
3
100
AcDbLine
 10
12.94627825765255
 20
0.9845247886811021
 30
0.0
 11
16.49528538624507
 21
0.9845247886811021
 31
0.0
  0
LINE
  5
3F0A
330
1E
100
AcDbEntity
  8
3
100
AcDbLine
 10
16.49528538624507
 20
0.9845247886811021
 30
0.0
 11
16.49528538624507
 21
-0.4150004849901566
 31
0.0
  0
LINE
  5
3F0B
330
1E
100
AcDbEntity
  8
3
100
AcDbLine
 10
12.39119228412893
 20
0.4058181354330719
 30
0.0
 11
12.33804575474901
 21
0.4058181354330719
 31
0.0
  0
LINE
  5
3F0C
330
1E
100
AcDbEntity
  8
3
100
AcDbLine
 10
12.33804575474901
 20
0.4058181354330719
 30
0.0
 11
12.28785181033464
 21
0.3821974557086625
 31
0.0
  0
LINE
  5
3F0D
330
1E
100
AcDbEntity
  8
3
100
AcDbLine
 10
12.28785181033464
 20
0.3821974557086625
 30
0.0
 11
12.25242079074803
 21
0.337908681225394
 31
0.0
  0
LINE
  5
3F0E
330
1E
100
AcDbEntity
  8
3
100
AcDbLine
 10
12.25242079074803
 20
0.337908681225394
 30
0.0
 11
12.24061045088582
 21
0.2847621518454728
 31
0.0
  0
LINE
  5
3F0F
330
1E
100
AcDbEntity
  8
3
100
AcDbLine
 10
12.24061045088582
 20
0.2847621518454728
 30
0.0
 11
12.25242079074803
 21
0.2316156224655517
 31
0.0
  0
LINE
  5
3F10
330
1E
100
AcDbEntity
  8
3
100
AcDbLine
 10
12.25242079074803
 20
0.2316156224655517
 30
0.0
 11
12.28785181033464
 21
0.187326847982284
 31
0.0
  0
LINE
  5
3F11
330
1E
100
AcDbEntity
  8
3
100
AcDbLine
 10
12.28785181033464
 20
0.187326847982284
 30
0.0
 11
12.33804575474901
 21
0.1637061682578746
 31
0.0
  0
LINE
  5
3F12
330
1E
100
AcDbEntity
  8
3
100
AcDbLine
 10
12.33804575474901
 20
0.1637061682578746
 30
0.0
 11
12.39119228412893
 21
0.1637061682578746
 31
0.0
  0
LINE
  5
3F13
330
1E
100
AcDbEntity
  8
3
100
AcDbLine
 10
12.39119228412893
 20
0.1637061682578746
 30
0.0
 11
12.4413862285433
 21
0.187326847982284
 31
0.0
  0
LINE
  5
3F14
330
1E
100
AcDbEntity
  8
3
100
AcDbLine
 10
12.4413862285433
 20
0.187326847982284
 30
0.0
 11
12.47681724812991
 21
0.2316156224655517
 31
0.0
  0
LINE
  5
3F15
330
1E
100
AcDbEntity
  8
3
100
AcDbLine
 10
12.47681724812991
 20
0.2316156224655517
 30
0.0
 11
12.48862758799212
 21
0.2847621518454728
 31
0.0
  0
LINE
  5
3F16
330
1E
100
AcDbEntity
  8
3
100
AcDbLine
 10
12.48862758799212
 20
0.2847621518454728
 30
0.0
 11
12.47681724812991
 21
0.337908681225394
 31
0.0
  0
LINE
  5
3F17
330
1E
100
AcDbEntity
  8
3
100
AcDbLine
 10
12.47681724812991
 20
0.337908681225394
 30
0.0
 11
12.4413862285433
 21
0.3821974557086625
 31
0.0
  0
LINE
  5
3F18
330
1E
100
AcDbEntity
  8
3
100
AcDbLine
 10
12.4413862285433
 20
0.3821974557086625
 30
0.0
 11
12.39119228412893
 21
0.4058181354330719
 31
0.0
  0
LINE
  5
3F19
330
1E
100
AcDbEntity
  8
3
100
AcDbLine
 10
12.68645078068405
 20
0.3821974557086625
 30
0.0
 11
12.65101976109743
 21
0.337908681225394
 31
0.0
  0
LINE
  5
3F1A
330
1E
100
AcDbEntity
  8
3
100
AcDbLine
 10
12.65101976109743
 20
0.337908681225394
 30
0.0
 11
12.63920942123523
 21
0.2847621518454728
 31
0.0
  0
LINE
  5
3F1B
330
1E
100
AcDbEntity
  8
3
100
AcDbLine
 10
12.63920942123523
 20
0.2847621518454728
 30
0.0
 11
12.65101976109743
 21
0.2316156224655517
 31
0.0
  0
LINE
  5
3F1C
330
1E
100
AcDbEntity
  8
3
100
AcDbLine
 10
12.65101976109743
 20
0.2316156224655517
 30
0.0
 11
12.68645078068405
 21
0.187326847982284
 31
0.0
  0
LINE
  5
3F1D
330
1E
100
AcDbEntity
  8
3
100
AcDbLine
 10
12.68645078068405
 20
0.187326847982284
 30
0.0
 11
12.73664472509842
 21
0.1637061682578746
 31
0.0
  0
LINE
  5
3F1E
330
1E
100
AcDbEntity
  8
3
100
AcDbLine
 10
12.73664472509842
 20
0.1637061682578746
 30
0.0
 11
12.78979125447834
 21
0.1637061682578746
 31
0.0
  0
LINE
  5
3F1F
330
1E
100
AcDbEntity
  8
3
100
AcDbLine
 10
12.78979125447834
 20
0.1637061682578746
 30
0.0
 11
12.83998519889271
 21
0.187326847982284
 31
0.0
  0
LINE
  5
3F20
330
1E
100
AcDbEntity
  8
3
100
AcDbLine
 10
12.83998519889271
 20
0.187326847982284
 30
0.0
 11
12.87541621847932
 21
0.2316156224655517
 31
0.0
  0
LINE
  5
3F21
330
1E
100
AcDbEntity
  8
3
100
AcDbLine
 10
12.87541621847932
 20
0.2316156224655517
 30
0.0
 11
12.88722655834153
 21
0.2847621518454728
 31
0.0
  0
LINE
  5
3F22
330
1E
100
AcDbEntity
  8
3
100
AcDbLine
 10
12.88722655834153
 20
0.2847621518454728
 30
0.0
 11
12.87541621847932
 21
0.337908681225394
 31
0.0
  0
LINE
  5
3F23
330
1E
100
AcDbEntity
  8
3
100
AcDbLine
 10
12.87541621847932
 20
0.337908681225394
 30
0.0
 11
12.83998519889271
 21
0.3821974557086625
 31
0.0
  0
LINE
  5
3F24
330
1E
100
AcDbEntity
  8
3
100
AcDbLine
 10
12.83998519889271
 20
0.3821974557086625
 30
0.0
 11
12.78979125447834
 21
0.4058181354330719
 31
0.0
  0
LINE
  5
3F25
330
1E
100
AcDbEntity
  8
3
100
AcDbLine
 10
12.78979125447834
 20
0.4058181354330719
 30
0.0
 11
12.73664472509842
 21
0.4058181354330719
 31
0.0
  0
LINE
  5
3F26
330
1E
100
AcDbEntity
  8
3
100
AcDbLine
 10
12.73664472509842
 20
0.4058181354330719
 30
0.0
 11
12.68645078068405
 21
0.3821974557086625
 31
0.0
  0
LINE
  5
3F27
330
1E
100
AcDbEntity
  8
3
100
AcDbLine
 10
16.55138450059054
 20
0.2847621518454728
 30
0.0
 11
16.56319484045275
 21
0.2316156224655517
 31
0.0
  0
LINE
  5
3F28
330
1E
100
AcDbEntity
  8
3
100
AcDbLine
 10
16.56319484045275
 20
0.2316156224655517
 30
0.0
 11
16.59862586003936
 21
0.187326847982284
 31
0.0
  0
LINE
  5
3F29
330
1E
100
AcDbEntity
  8
3
100
AcDbLine
 10
16.59862586003936
 20
0.187326847982284
 30
0.0
 11
16.64881980445373
 21
0.1637061682578746
 31
0.0
  0
LINE
  5
3F2A
330
1E
100
AcDbEntity
  8
3
100
AcDbLine
 10
16.64881980445373
 20
0.1637061682578746
 30
0.0
 11
16.70196633383366
 21
0.1637061682578746
 31
0.0
  0
LINE
  5
3F2B
330
1E
100
AcDbEntity
  8
3
100
AcDbLine
 10
16.70196633383366
 20
0.1637061682578746
 30
0.0
 11
16.75216027824803
 21
0.187326847982284
 31
0.0
  0
LINE
  5
3F2C
330
1E
100
AcDbEntity
  8
3
100
AcDbLine
 10
16.75216027824803
 20
0.187326847982284
 30
0.0
 11
16.78759129783464
 21
0.2316156224655517
 31
0.0
  0
LINE
  5
3F2D
330
1E
100
AcDbEntity
  8
3
100
AcDbLine
 10
16.78759129783464
 20
0.2316156224655517
 30
0.0
 11
16.79940163769685
 21
0.2847621518454728
 31
0.0
  0
LINE
  5
3F2E
330
1E
100
AcDbEntity
  8
3
100
AcDbLine
 10
16.79940163769685
 20
0.2847621518454728
 30
0.0
 11
16.78759129783464
 21
0.337908681225394
 31
0.0
  0
LINE
  5
3F2F
330
1E
100
AcDbEntity
  8
3
100
AcDbLine
 10
16.78759129783464
 20
0.337908681225394
 30
0.0
 11
16.75216027824803
 21
0.3821974557086625
 31
0.0
  0
LINE
  5
3F30
330
1E
100
AcDbEntity
  8
3
100
AcDbLine
 10
16.75216027824803
 20
0.3821974557086625
 30
0.0
 11
16.70196633383366
 21
0.4058181354330719
 31
0.0
  0
LINE
  5
3F31
330
1E
100
AcDbEntity
  8
3
100
AcDbLine
 10
16.70196633383366
 20
0.4058181354330719
 30
0.0
 11
16.64881980445373
 21
0.4058181354330719
 31
0.0
  0
LINE
  5
3F32
330
1E
100
AcDbEntity
  8
3
100
AcDbLine
 10
16.64881980445373
 20
0.4058181354330719
 30
0.0
 11
16.59862586003936
 21
0.3821974557086625
 31
0.0
  0
LINE
  5
3F33
330
1E
100
AcDbEntity
  8
3
100
AcDbLine
 10
16.59862586003936
 20
0.3821974557086625
 30
0.0
 11
16.56319484045275
 21
0.337908681225394
 31
0.0
  0
LINE
  5
3F34
330
1E
100
AcDbEntity
  8
3
100
AcDbLine
 10
16.56319484045275
 20
0.337908681225394
 30
0.0
 11
16.55138450059054
 21
0.2847621518454728
 31
0.0
  0
LINE
  5
3F35
330
1E
100
AcDbEntity
  8
3
100
AcDbLine
 10
16.96179381080216
 20
0.2316156224655517
 30
0.0
 11
16.99722483038877
 21
0.187326847982284
 31
0.0
  0
LINE
  5
3F36
330
1E
100
AcDbEntity
  8
3
100
AcDbLine
 10
16.99722483038877
 20
0.187326847982284
 30
0.0
 11
17.04741877480314
 21
0.1637061682578746
 31
0.0
  0
LINE
  5
3F37
330
1E
100
AcDbEntity
  8
3
100
AcDbLine
 10
17.04741877480314
 20
0.1637061682578746
 30
0.0
 11
17.10056530418307
 21
0.1637061682578746
 31
0.0
  0
LINE
  5
3F38
330
1E
100
AcDbEntity
  8
3
100
AcDbLine
 10
17.10056530418307
 20
0.1637061682578746
 30
0.0
 11
17.15075924859744
 21
0.187326847982284
 31
0.0
  0
LINE
  5
3F39
330
1E
100
AcDbEntity
  8
3
100
AcDbLine
 10
17.15075924859744
 20
0.187326847982284
 30
0.0
 11
17.18619026818405
 21
0.2316156224655517
 31
0.0
  0
LINE
  5
3F3A
330
1E
100
AcDbEntity
  8
3
100
AcDbLine
 10
17.18619026818405
 20
0.2316156224655517
 30
0.0
 11
17.19800060804626
 21
0.2847621518454728
 31
0.0
  0
LINE
  5
3F3B
330
1E
100
AcDbEntity
  8
3
100
AcDbLine
 10
17.19800060804626
 20
0.2847621518454728
 30
0.0
 11
17.18619026818405
 21
0.337908681225394
 31
0.0
  0
LINE
  5
3F3C
330
1E
100
AcDbEntity
  8
3
100
AcDbLine
 10
17.18619026818405
 20
0.337908681225394
 30
0.0
 11
17.15075924859744
 21
0.3821974557086625
 31
0.0
  0
LINE
  5
3F3D
330
1E
100
AcDbEntity
  8
3
100
AcDbLine
 10
17.15075924859744
 20
0.3821974557086625
 30
0.0
 11
17.10056530418307
 21
0.4058181354330719
 31
0.0
  0
LINE
  5
3F3E
330
1E
100
AcDbEntity
  8
3
100
AcDbLine
 10
17.10056530418307
 20
0.4058181354330719
 30
0.0
 11
17.04741877480314
 21
0.4058181354330719
 31
0.0
  0
LINE
  5
3F3F
330
1E
100
AcDbEntity
  8
3
100
AcDbLine
 10
17.04741877480314
 20
0.4058181354330719
 30
0.0
 11
16.99722483038877
 21
0.3821974557086625
 31
0.0
  0
LINE
  5
3F40
330
1E
100
AcDbEntity
  8
3
100
AcDbLine
 10
16.99722483038877
 20
0.3821974557086625
 30
0.0
 11
16.96179381080216
 21
0.337908681225394
 31
0.0
  0
LINE
  5
3F41
330
1E
100
AcDbEntity
  8
3
100
AcDbLine
 10
16.96179381080216
 20
0.337908681225394
 30
0.0
 11
16.94998347093996
 21
0.2847621518454728
 31
0.0
  0
LINE
  5
3F42
330
1E
100
AcDbEntity
  8
3
100
AcDbLine
 10
21.34342989968011
 20
-0.4858625241633856
 30
0.0
 11
21.34342989968011
 21
-0.5301512986466524
 31
0.0
  0
LINE
  5
3F43
330
1E
100
AcDbEntity
  8
3
100
AcDbLine
 10
21.34342989968011
 20
-0.5301512986466524
 30
0.0
 11
21.34342989968011
 21
-0.5626297332677162
 31
0.0
  0
LINE
  5
3F44
330
1E
100
AcDbEntity
  8
3
100
AcDbLine
 10
21.46153329830216
 20
-0.4858625241633856
 30
0.0
 11
21.44381778850886
 21
-0.4445263346456683
 31
0.0
  0
LINE
  5
3F45
330
1E
100
AcDbEntity
  8
3
100
AcDbLine
 10
21.44381778850886
 20
-0.4445263346456683
 30
0.0
 11
21.40248159899114
 21
-0.4268108248523613
 31
0.0
  0
LINE
  5
3F46
330
1E
100
AcDbEntity
  8
3
100
AcDbLine
 10
21.40248159899114
 20
-0.4268108248523613
 30
0.0
 11
21.36114540947342
 21
-0.4445263346456683
 31
0.0
  0
LINE
  5
3F47
330
1E
100
AcDbEntity
  8
3
100
AcDbLine
 10
21.36114540947342
 20
-0.4445263346456683
 30
0.0
 11
21.34342989968011
 21
-0.4858625241633856
 31
0.0
  0
LINE
  5
3F48
330
1E
100
AcDbEntity
  8
3
100
AcDbLine
 10
21.65935649099409
 20
-0.202414367470471
 30
0.0
 11
21.60030479168307
 21
-0.2171772922982278
 31
0.0
  0
LINE
  5
3F49
330
1E
100
AcDbEntity
  8
3
100
AcDbLine
 10
21.60030479168307
 20
-0.2171772922982278
 30
0.0
 11
21.5501108472687
 21
-0.2555608968503922
 31
0.0
  0
LINE
  5
3F4A
330
1E
100
AcDbEntity
  8
3
100
AcDbLine
 10
21.5501108472687
 20
-0.2555608968503922
 30
0.0
 11
21.52353758257874
 21
-0.3116600111958654
 31
0.0
  0
LINE
  5
3F4B
330
1E
100
AcDbEntity
  8
3
100
AcDbLine
 10
21.52353758257874
 20
-0.3116600111958654
 30
0.0
 11
21.52353758257874
 21
-0.3707117105068889
 31
0.0
  0
LINE
  5
3F4C
330
1E
100
AcDbEntity
  8
3
100
AcDbLine
 10
21.52353758257874
 20
-0.3707117105068889
 30
0.0
 11
21.5501108472687
 21
-0.4268108248523613
 31
0.0
  0
LINE
  5
3F4D
330
1E
100
AcDbEntity
  8
3
100
AcDbLine
 10
21.5501108472687
 20
-0.4268108248523613
 30
0.0
 11
21.60030479168307
 21
-0.4651944294045265
 31
0.0
  0
LINE
  5
3F4E
330
1E
100
AcDbEntity
  8
3
100
AcDbLine
 10
21.60030479168307
 20
-0.4651944294045265
 30
0.0
 11
21.65935649099409
 21
-0.4799573542322833
 31
0.0
  0
LINE
  5
3F4F
330
1E
100
AcDbEntity
  8
3
100
AcDbLine
 10
22.00480893196358
 20
-0.5744400731299209
 30
0.0
 11
22.04614512148129
 21
-0.5567245633366138
 31
0.0
  0
LINE
  5
3F50
330
1E
100
AcDbEntity
  8
3
100
AcDbLine
 10
22.04614512148129
 20
-0.5567245633366138
 30
0.0
 11
22.0638606312746
 21
-0.5153883738188974
 31
0.0
  0
LINE
  5
3F51
330
1E
100
AcDbEntity
  8
3
100
AcDbLine
 10
21.77745988961614
 20
-0.4799573542322833
 30
0.0
 11
21.83651158892716
 21
-0.4651944294045265
 31
0.0
  0
LINE
  5
3F52
330
1E
100
AcDbEntity
  8
3
100
AcDbLine
 10
21.83651158892716
 20
-0.4651944294045265
 30
0.0
 11
21.88670553334154
 21
-0.4268108248523613
 31
0.0
  0
LINE
  5
3F53
330
1E
100
AcDbEntity
  8
3
100
AcDbLine
 10
21.88670553334154
 20
-0.4268108248523613
 30
0.0
 11
21.9132787980315
 21
-0.3707117105068889
 31
0.0
  0
LINE
  5
3F54
330
1E
100
AcDbEntity
  8
3
100
AcDbLine
 10
21.9132787980315
 20
-0.3707117105068889
 30
0.0
 11
21.9132787980315
 21
-0.3116600111958654
 31
0.0
  0
LINE
  5
3F55
330
1E
100
AcDbEntity
  8
3
100
AcDbLine
 10
21.9132787980315
 20
-0.3116600111958654
 30
0.0
 11
21.88670553334154
 21
-0.2555608968503922
 31
0.0
  0
LINE
  5
3F56
330
1E
100
AcDbEntity
  8
3
100
AcDbLine
 10
21.88670553334154
 20
-0.2555608968503922
 30
0.0
 11
21.83651158892716
 21
-0.2171772922982278
 31
0.0
  0
LINE
  5
3F57
330
1E
100
AcDbEntity
  8
3
100
AcDbLine
 10
21.65935649099409
 20
1.049481657923229
 30
0.0
 11
21.60030479168307
 21
1.034718733095472
 31
0.0
  0
LINE
  5
3F58
330
1E
100
AcDbEntity
  8
3
100
AcDbLine
 10
21.60030479168307
 20
1.034718733095472
 30
0.0
 11
21.5501108472687
 21
0.9963351285433068
 31
0.0
  0
LINE
  5
3F59
330
1E
100
AcDbEntity
  8
3
100
AcDbLine
 10
21.5501108472687
 20
0.9963351285433068
 30
0.0
 11
21.52353758257874
 21
0.9402360141978345
 31
0.0
  0
LINE
  5
3F5A
330
1E
100
AcDbEntity
  8
3
100
AcDbLine
 10
21.34342989968011
 20
1.05538682785433
 30
0.0
 11
21.36114540947342
 21
1.014050638336613
 31
0.0
  0
LINE
  5
3F5B
330
1E
100
AcDbEntity
  8
3
100
AcDbLine
 10
21.36114540947342
 20
1.014050638336613
 30
0.0
 11
21.40248159899114
 21
0.9963351285433068
 31
0.0
  0
LINE
  5
3F5C
330
1E
100
AcDbEntity
  8
3
100
AcDbLine
 10
21.40248159899114
 20
0.9963351285433068
 30
0.0
 11
21.44381778850886
 21
1.014050638336613
 31
0.0
  0
LINE
  5
3F5D
330
1E
100
AcDbEntity
  8
3
100
AcDbLine
 10
21.44381778850886
 20
1.014050638336613
 30
0.0
 11
21.46153329830216
 21
1.05538682785433
 31
0.0
  0
LINE
  5
3F5E
330
1E
100
AcDbEntity
  8
3
100
AcDbLine
 10
21.01569296850393
 20
0.1637061682578746
 30
0.0
 11
21.06588691291831
 21
0.187326847982284
 31
0.0
  0
LINE
  5
3F5F
330
1E
100
AcDbEntity
  8
3
100
AcDbLine
 10
21.06588691291831
 20
0.187326847982284
 30
0.0
 11
21.10131793250492
 21
0.2316156224655517
 31
0.0
  0
LINE
  5
3F60
330
1E
100
AcDbEntity
  8
3
100
AcDbLine
 10
21.10131793250492
 20
0.2316156224655517
 30
0.0
 11
21.11312827236713
 21
0.2847621518454728
 31
0.0
  0
LINE
  5
3F61
330
1E
100
AcDbEntity
  8
3
100
AcDbLine
 10
21.11312827236713
 20
0.2847621518454728
 30
0.0
 11
21.10131793250492
 21
0.337908681225394
 31
0.0
  0
LINE
  5
3F62
330
1E
100
AcDbEntity
  8
3
100
AcDbLine
 10
21.10131793250492
 20
0.337908681225394
 30
0.0
 11
21.06588691291831
 21
0.3821974557086625
 31
0.0
  0
LINE
  5
3F63
330
1E
100
AcDbEntity
  8
3
100
AcDbLine
 10
21.06588691291831
 20
0.3821974557086625
 30
0.0
 11
21.01569296850393
 21
0.4058181354330719
 31
0.0
  0
LINE
  5
3F64
330
1E
100
AcDbEntity
  8
3
100
AcDbLine
 10
21.01569296850393
 20
0.4058181354330719
 30
0.0
 11
20.96254643912401
 21
0.4058181354330719
 31
0.0
  0
LINE
  5
3F65
330
1E
100
AcDbEntity
  8
3
100
AcDbLine
 10
20.96254643912401
 20
0.4058181354330719
 30
0.0
 11
20.91235249470964
 21
0.3821974557086625
 31
0.0
  0
LINE
  5
3F66
330
1E
100
AcDbEntity
  8
3
100
AcDbLine
 10
20.91235249470964
 20
0.3821974557086625
 30
0.0
 11
20.87692147512302
 21
0.337908681225394
 31
0.0
  0
LINE
  5
3F67
330
1E
100
AcDbEntity
  8
3
100
AcDbLine
 10
20.87692147512302
 20
0.337908681225394
 30
0.0
 11
20.86511113526082
 21
0.2847621518454728
 31
0.0
  0
LINE
  5
3F68
330
1E
100
AcDbEntity
  8
3
100
AcDbLine
 10
20.86511113526082
 20
0.2847621518454728
 30
0.0
 11
20.87692147512302
 21
0.2316156224655517
 31
0.0
  0
LINE
  5
3F69
330
1E
100
AcDbEntity
  8
3
100
AcDbLine
 10
20.87692147512302
 20
0.2316156224655517
 30
0.0
 11
20.91235249470964
 21
0.187326847982284
 31
0.0
  0
LINE
  5
3F6A
330
1E
100
AcDbEntity
  8
3
100
AcDbLine
 10
20.91235249470964
 20
0.187326847982284
 30
0.0
 11
20.96254643912401
 21
0.1637061682578746
 31
0.0
  0
LINE
  5
3F6B
330
1E
100
AcDbEntity
  8
3
100
AcDbLine
 10
20.96254643912401
 20
0.1637061682578746
 30
0.0
 11
21.01569296850393
 21
0.1637061682578746
 31
0.0
  0
LINE
  5
3F6C
330
1E
100
AcDbEntity
  8
3
100
AcDbLine
 10
21.65935649099409
 20
0.423533645226379
 30
0.0
 11
21.60030479168307
 21
0.4087707203986222
 31
0.0
  0
LINE
  5
3F6D
330
1E
100
AcDbEntity
  8
3
100
AcDbLine
 10
21.60030479168307
 20
0.4087707203986222
 30
0.0
 11
21.5501108472687
 21
0.3703871158464578
 31
0.0
  0
LINE
  5
3F6E
330
1E
100
AcDbEntity
  8
3
100
AcDbLine
 10
21.5501108472687
 20
0.3703871158464578
 30
0.0
 11
21.52353758257874
 21
0.3142880015009846
 31
0.0
  0
LINE
  5
3F6F
330
1E
100
AcDbEntity
  8
3
100
AcDbLine
 10
21.52353758257874
 20
0.3142880015009846
 30
0.0
 11
21.52353758257874
 21
0.2552363021899611
 31
0.0
  0
LINE
  5
3F70
330
1E
100
AcDbEntity
  8
3
100
AcDbLine
 10
21.52353758257874
 20
0.2552363021899611
 30
0.0
 11
21.5501108472687
 21
0.1991371878444887
 31
0.0
  0
LINE
  5
3F71
330
1E
100
AcDbEntity
  8
3
100
AcDbLine
 10
21.5501108472687
 20
0.1991371878444887
 30
0.0
 11
21.60030479168307
 21
0.1607535832923235
 31
0.0
  0
LINE
  5
3F72
330
1E
100
AcDbEntity
  8
3
100
AcDbLine
 10
21.60030479168307
 20
0.1607535832923235
 30
0.0
 11
21.65935649099409
 21
0.1459906584645676
 31
0.0
  0
LINE
  5
3F73
330
1E
100
AcDbEntity
  8
3
100
AcDbLine
 10
21.52353758257874
 20
0.9402360141978345
 30
0.0
 11
21.52353758257874
 21
0.8811843148868137
 31
0.0
  0
LINE
  5
3F74
330
1E
100
AcDbEntity
  8
3
100
AcDbLine
 10
21.52353758257874
 20
0.8811843148868137
 30
0.0
 11
21.5501108472687
 21
0.8250852005413378
 31
0.0
  0
LINE
  5
3F75
330
1E
100
AcDbEntity
  8
3
100
AcDbLine
 10
21.5501108472687
 20
0.8250852005413378
 30
0.0
 11
21.60030479168307
 21
0.7867015959891761
 31
0.0
  0
LINE
  5
3F76
330
1E
100
AcDbEntity
  8
3
100
AcDbLine
 10
21.60030479168307
 20
0.7867015959891761
 30
0.0
 11
21.65935649099409
 21
0.7719386711614176
 31
0.0
  0
LINE
  5
3F77
330
1E
100
AcDbEntity
  8
3
100
AcDbLine
 10
21.34342989968011
 20
1.05538682785433
 30
0.0
 11
21.34342989968011
 21
1.099675602337598
 31
0.0
  0
LINE
  5
3F78
330
1E
100
AcDbEntity
  8
3
100
AcDbLine
 10
21.34342989968011
 20
1.099675602337598
 30
0.0
 11
21.34342989968011
 21
1.132154036958662
 31
0.0
  0
LINE
  5
3F79
330
1E
100
AcDbEntity
  8
3
100
AcDbLine
 10
21.34342989968011
 20
1.132154036958662
 30
0.0
 11
21.34342989968011
 21
1.143964376820867
 31
0.0
  0
LINE
  5
3F7A
330
1E
100
AcDbEntity
  8
3
100
AcDbLine
 10
21.83651158892716
 20
0.7867015959891761
 30
0.0
 11
21.88670553334154
 21
0.8250852005413378
 31
0.0
  0
LINE
  5
3F7B
330
1E
100
AcDbEntity
  8
3
100
AcDbLine
 10
21.88670553334154
 20
0.8250852005413378
 30
0.0
 11
21.9132787980315
 21
0.8811843148868137
 31
0.0
  0
LINE
  5
3F7C
330
1E
100
AcDbEntity
  8
3
100
AcDbLine
 10
21.9132787980315
 20
0.8811843148868137
 30
0.0
 11
21.9132787980315
 21
0.9402360141978345
 31
0.0
  0
LINE
  5
3F7D
330
1E
100
AcDbEntity
  8
3
100
AcDbLine
 10
21.9132787980315
 20
0.9402360141978345
 30
0.0
 11
21.88670553334154
 21
0.9963351285433068
 31
0.0
  0
LINE
  5
3F7E
330
1E
100
AcDbEntity
  8
3
100
AcDbLine
 10
21.88670553334154
 20
0.9963351285433068
 30
0.0
 11
21.83651158892716
 21
1.034718733095472
 31
0.0
  0
LINE
  5
3F7F
330
1E
100
AcDbEntity
  8
3
100
AcDbLine
 10
21.83651158892716
 20
1.034718733095472
 30
0.0
 11
21.77745988961614
 21
1.049481657923229
 31
0.0
  0
LINE
  5
3F80
330
1E
100
AcDbEntity
  8
3
100
AcDbLine
 10
22.0638606312746
 20
1.084912677509843
 30
0.0
 11
22.04614512148129
 21
1.126248867027558
 31
0.0
  0
LINE
  5
3F81
330
1E
100
AcDbEntity
  8
3
100
AcDbLine
 10
22.04614512148129
 20
1.126248867027558
 30
0.0
 11
22.00480893196358
 21
1.143964376820867
 31
0.0
  0
LINE
  5
3FD3
330
1E
100
AcDbEntity
  8
3
100
AcDbLine
 10
21.46448588326772
 20
7.152474781717518
 30
0.0
 11
22.00480893196358
 21
7.152474781717518
 31
0.0
  0
LINE
  5
3FD4
330
1E
100
AcDbEntity
  8
3
100
AcDbLine
 10
22.00480893196358
 20
7.152474781717518
 30
0.0
 11
22.00480893196358
 21
7.211526481028545
 31
0.0
  0
LINE
  5
3FD5
330
1E
100
AcDbEntity
  8
3
100
AcDbLine
 10
22.00480893196358
 20
7.211526481028545
 30
0.0
 11
21.46448588326772
 21
7.211526481028545
 31
0.0
  0
LINE
  5
3FD6
330
1E
100
AcDbEntity
  8
3
100
AcDbLine
 10
21.46448588326772
 20
7.211526481028545
 30
0.0
 11
21.46448588326772
 21
7.152474781717518
 31
0.0
  0
LINE
  5
3FD7
330
1E
100
AcDbEntity
  8
3
100
AcDbLine
 10
21.18989548147145
 20
7.424112598548229
 30
0.0
 11
21.20761099126477
 21
7.379823824064961
 31
0.0
  0
LINE
  5
3FD8
330
1E
100
AcDbEntity
  8
3
100
AcDbLine
 10
21.20761099126477
 20
7.379823824064961
 30
0.0
 11
21.25189976574803
 21
7.362108314271653
 31
0.0
  0
LINE
  5
3FD9
330
1E
100
AcDbEntity
  8
3
100
AcDbLine
 10
21.46448588326772
 20
7.211526481028545
 30
0.0
 11
21.44677037347441
 21
7.211526481028545
 31
0.0
  0
LINE
  5
3FDA
330
1E
100
AcDbEntity
  8
3
100
AcDbLine
 10
21.44677037347441
 20
7.211526481028545
 30
0.0
 11
21.40248159899114
 21
7.211526481028545
 31
0.0
  0
LINE
  5
3FDB
330
1E
100
AcDbEntity
  8
3
100
AcDbLine
 10
21.40248159899114
 20
7.211526481028545
 30
0.0
 11
21.36114540947342
 21
7.211526481028545
 31
0.0
  0
LINE
  5
3FDC
330
1E
100
AcDbEntity
  8
3
100
AcDbLine
 10
21.36114540947342
 20
7.211526481028545
 30
0.0
 11
21.34342989968011
 21
7.211526481028545
 31
0.0
  0
LINE
  5
3FDD
330
1E
100
AcDbEntity
  8
3
100
AcDbLine
 10
21.34342989968011
 20
7.152474781717518
 30
0.0
 11
21.36114540947342
 21
7.152474781717518
 31
0.0
  0
LINE
  5
3FDE
330
1E
100
AcDbEntity
  8
3
100
AcDbLine
 10
21.36114540947342
 20
7.152474781717518
 30
0.0
 11
21.40248159899114
 21
7.152474781717518
 31
0.0
  0
LINE
  5
3FDF
330
1E
100
AcDbEntity
  8
3
100
AcDbLine
 10
21.40248159899114
 20
7.152474781717518
 30
0.0
 11
21.44677037347441
 21
7.152474781717518
 31
0.0
  0
LINE
  5
3FE0
330
1E
100
AcDbEntity
  8
3
100
AcDbLine
 10
21.44677037347441
 20
7.152474781717518
 30
0.0
 11
21.46448588326772
 21
7.152474781717518
 31
0.0
  0
LINE
  5
3FE1
330
1E
100
AcDbEntity
  8
3
100
AcDbLine
 10
21.34342989968011
 20
7.300104029995081
 30
0.0
 11
21.32571438988681
 21
7.344392804478344
 31
0.0
  0
LINE
  5
3FE2
330
1E
100
AcDbEntity
  8
3
100
AcDbLine
 10
21.32571438988681
 20
7.344392804478344
 30
0.0
 11
21.28142561540354
 21
7.362108314271653
 31
0.0
  0
LINE
  5
3FE3
330
1E
100
AcDbEntity
  8
3
100
AcDbLine
 10
21.25485235071358
 20
7.241052330684055
 30
0.0
 11
21.34342989968011
 21
7.241052330684055
 31
0.0
  0
LINE
  5
3FE4
330
1E
100
AcDbEntity
  8
3
100
AcDbLine
 10
21.34342989968011
 20
7.241052330684055
 30
0.0
 11
21.34342989968011
 21
7.300104029995081
 31
0.0
  0
LINE
  5
3FE5
330
1E
100
AcDbEntity
  8
3
100
AcDbLine
 10
21.34342989968011
 20
7.164285121579726
 30
0.0
 11
21.34342989968011
 21
7.196763556200787
 31
0.0
  0
LINE
  5
3FE6
330
1E
100
AcDbEntity
  8
3
100
AcDbLine
 10
21.34342989968011
 20
7.196763556200787
 30
0.0
 11
21.34342989968011
 21
7.241052330684055
 31
0.0
  0
LINE
  5
3FE7
330
1E
100
AcDbEntity
  8
3
100
AcDbLine
 10
21.25485235071358
 20
7.241052330684055
 30
0.0
 11
21.34342989968011
 21
7.241052330684055
 31
0.0
  0
LINE
  5
3FE8
330
1E
100
AcDbEntity
  8
3
100
AcDbLine
 10
21.34342989968011
 20
7.241052330684055
 30
0.0
 11
21.25485235071358
 21
7.241052330684055
 31
0.0
  0
LINE
  5
3FE9
330
1E
100
AcDbEntity
  8
3
100
AcDbLine
 10
21.1869428965059
 20
7.530405657308069
 30
0.0
 11
21.16922738671259
 21
7.574694431791337
 31
0.0
  0
LINE
  5
3FEA
330
1E
100
AcDbEntity
  8
3
100
AcDbLine
 10
21.16922738671259
 20
7.574694431791337
 30
0.0
 11
21.12493861222933
 21
7.592409941584645
 31
0.0
  0
LINE
  5
3FEB
330
1E
100
AcDbEntity
  8
3
100
AcDbLine
 10
22.00480893196358
 20
7.211526481028545
 30
0.0
 11
22.04614512148129
 21
7.211526481028545
 31
0.0
  0
LINE
  5
3FEC
330
1E
100
AcDbEntity
  8
3
100
AcDbLine
 10
22.04614512148129
 20
7.211526481028545
 30
0.0
 11
22.0638606312746
 21
7.211526481028545
 31
0.0
  0
LINE
  5
3FED
330
1E
100
AcDbEntity
  8
3
100
AcDbLine
 10
22.0638606312746
 20
7.152474781717518
 30
0.0
 11
22.04614512148129
 21
7.152474781717518
 31
0.0
  0
LINE
  5
3FEE
330
1E
100
AcDbEntity
  8
3
100
AcDbLine
 10
22.04614512148129
 20
7.152474781717518
 30
0.0
 11
22.00480893196358
 21
7.152474781717518
 31
0.0
  0
ENDSEC
  0
SECTION
  2
OBJECTS
  0
DICTIONARY
  5
C
330
0
100
AcDbDictionary
  3
ACAD_GROUP
350
D
  3
ACAD_LAYOUT
350
19
  3
ACAD_MLINESTYLE
350
16
  3
ACAD_PLOTSETTINGS
350
18
  3
ACAD_PLOTSTYLENAME
350
E
  3
ACDBHEADERROUNDTRIPXREC
350
4024
  0
DICTIONARY
  5
4047
330
1E
100
AcDbDictionary
280
     1
  3
ACAD_LAYOUTSELFREF
360
4048
  0
DICTIONARY
  5
4045
330
1A
100
AcDbDictionary
280
     1
  3
ACAD_LAYOUTSELFREF
360
4046
  0
DICTIONARY
  5
D
102
{ACAD_REACTORS
330
C
102
}
330
C
100
AcDbDictionary
  0
DICTIONARY
  5
19
102
{ACAD_REACTORS
330
C
102
}
330
C
100
AcDbDictionary
  0
DICTIONARY
  5
16
102
{ACAD_REACTORS
330
C
102
}
330
C
100
AcDbDictionary
  3
STANDARD
350
17
  0
DICTIONARY
  5
18
102
{ACAD_REACTORS
330
C
102
}
330
C
100
AcDbDictionary
  0
ACDBDICTIONARYWDFLT
  5
E
102
{ACAD_REACTORS
330
C
102
}
330
C
100
AcDbDictionary
281
     1
  3
Normal
350
F
100
AcDbDictionaryWithDefault
340
F
  0
DICTIONARY
  5
4024
102
{ACAD_REACTORS
330
C
102
}
330
C
100
AcDbDictionary
  3
CEPSNTYPE
350
402E
  3
DIMSTYLEDATA
350
4032
  3
FINGERPRINTGUID
350
402F
  3
HYPERLINKBASE
350
4027
  3
INSUNITS
350
402D
  3
LAYOUTDICT
350
4029
  3
LWETCUNION
350
402C
  3
PLOTSETDICT
350
402A
  3
PLOTSTYLNAMDICT
350
402B
  3
PSVPSCALE
350
4031
  3
PUCSBASE
350
4035
  3
PUCSORGBACK
350
403B
  3
PUCSORGBOTTOM
350
4037
  3
PUCSORGFRONT
350
403A
  3
PUCSORGLEFT
350
4038
  3
PUCSORGRIGHT
350
4039
  3
PUCSORGTOP
350
4036
  3
PUCSORTHOREF
350
4033
  3
PUCSORTHOVIEW
350
4034
  3
STYLESHEET
350
4028
  3
TSTACKALIGN
350
4025
  3
TSTACKSIZE
350
4026
  3
UCSBASE
350
403E
  3
UCSORGBACK
350
4044
  3
UCSORGBOTTOM
350
4040
  3
UCSORGFRONT
350
4043
  3
UCSORGLEFT
350
4041
  3
UCSORGRIGHT
350
4042
  3
UCSORGTOP
350
403F
  3
UCSORTHOREF
350
403C
  3
UCSORTHOVIEW
350
403D
  3
VERSIONGUID
350
4030
  0
XRECORD
  5
4048
102
{ACAD_REACTORS
330
4047
102
}
330
4047
100
AcDbXrecord
340
1E
  0
XRECORD
  5
4046
102
{ACAD_REACTORS
330
4045
102
}
330
4045
100
AcDbXrecord
340
1A
  0
MLINESTYLE
  5
17
102
{ACAD_REACTORS
330
16
102
}
330
16
100
AcDbMlineStyle
  2
STANDARD
 70
     0
  3

 62
   256
 51
90.0
 52
90.0
 71
     2
 49
0.5
 62
   256
  6
BYLAYER
 49
-0.5
 62
   256
  6
BYLAYER
  0
ACDBPLACEHOLDER
  5
F
102
{ACAD_REACTORS
330
E
102
}
330
E
100
AcDbPlaceHolder
280
     0
  0
XRECORD
  5
402E
102
{ACAD_REACTORS
330
4024
102
}
330
4024
100
AcDbXrecord
 90
        0
  0
XRECORD
  5
4032
102
{ACAD_REACTORS
330
4024
102
}
330
4024
100
AcDbXrecord
1000
DSTYLE
1002
{
1070
   279
 70
     2
1002
}
  0
XRECORD
  5
402F
102
{ACAD_REACTORS
330
4024
102
}
330
4024
100
AcDbXrecord
  1
{E43AC2D8-5D07-11D6-B7D0-00B0D0207C23}
  0
XRECORD
  5
4027
102
{ACAD_REACTORS
330
4024
102
}
330
4024
100
AcDbXrecord
  1

  0
XRECORD
  5
402D
102
{ACAD_REACTORS
330
4024
102
}
330
4024
100
AcDbXrecord
 90
        0
  0
XRECORD
  5
4029
102
{ACAD_REACTORS
330
4024
102
}
330
4024
100
AcDbXrecord
340
19
  0
XRECORD
  5
402C
102
{ACAD_REACTORS
330
4024
102
}
330
4024
100
AcDbXrecord
 90
    14877
  0
XRECORD
  5
402A
102
{ACAD_REACTORS
330
4024
102
}
330
4024
100
AcDbXrecord
340
18
  0
XRECORD
  5
402B
102
{ACAD_REACTORS
330
4024
102
}
330
4024
100
AcDbXrecord
340
E
  0
XRECORD
  5
4031
102
{ACAD_REACTORS
330
4024
102
}
330
4024
100
AcDbXrecord
 40
0.0
  0
XRECORD
  5
4035
102
{ACAD_REACTORS
330
4024
102
}
330
4024
100
AcDbXrecord
340
0
  0
XRECORD
  5
403B
102
{ACAD_REACTORS
330
4024
102
}
330
4024
100
AcDbXrecord
 10
0.0
 20
0.0
 30
0.0
  0
XRECORD
  5
4037
102
{ACAD_REACTORS
330
4024
102
}
330
4024
100
AcDbXrecord
 10
0.0
 20
0.0
 30
0.0
  0
XRECORD
  5
403A
102
{ACAD_REACTORS
330
4024
102
}
330
4024
100
AcDbXrecord
 10
0.0
 20
0.0
 30
0.0
  0
XRECORD
  5
4038
102
{ACAD_REACTORS
330
4024
102
}
330
4024
100
AcDbXrecord
 10
0.0
 20
0.0
 30
0.0
  0
XRECORD
  5
4039
102
{ACAD_REACTORS
330
4024
102
}
330
4024
100
AcDbXrecord
 10
0.0
 20
0.0
 30
0.0
  0
XRECORD
  5
4036
102
{ACAD_REACTORS
330
4024
102
}
330
4024
100
AcDbXrecord
 10
0.0
 20
0.0
 30
0.0
  0
XRECORD
  5
4033
102
{ACAD_REACTORS
330
4024
102
}
330
4024
100
AcDbXrecord
340
0
  0
XRECORD
  5
4034
102
{ACAD_REACTORS
330
4024
102
}
330
4024
100
AcDbXrecord
 70
     0
  0
XRECORD
  5
4028
102
{ACAD_REACTORS
330
4024
102
}
330
4024
100
AcDbXrecord
  1

  0
XRECORD
  5
4025
102
{ACAD_REACTORS
330
4024
102
}
330
4024
100
AcDbXrecord
 90
        1
  0
XRECORD
  5
4026
102
{ACAD_REACTORS
330
4024
102
}
330
4024
100
AcDbXrecord
 90
       70
  0
XRECORD
  5
403E
102
{ACAD_REACTORS
330
4024
102
}
330
4024
100
AcDbXrecord
340
0
  0
XRECORD
  5
4044
102
{ACAD_REACTORS
330
4024
102
}
330
4024
100
AcDbXrecord
 10
0.0
 20
0.0
 30
0.0
  0
XRECORD
  5
4040
102
{ACAD_REACTORS
330
4024
102
}
330
4024
100
AcDbXrecord
 10
0.0
 20
0.0
 30
0.0
  0
XRECORD
  5
4043
102
{ACAD_REACTORS
330
4024
102
}
330
4024
100
AcDbXrecord
 10
0.0
 20
0.0
 30
0.0
  0
XRECORD
  5
4041
102
{ACAD_REACTORS
330
4024
102
}
330
4024
100
AcDbXrecord
 10
0.0
 20
0.0
 30
0.0
  0
XRECORD
  5
4042
102
{ACAD_REACTORS
330
4024
102
}
330
4024
100
AcDbXrecord
 10
0.0
 20
0.0
 30
0.0
  0
XRECORD
  5
403F
102
{ACAD_REACTORS
330
4024
102
}
330
4024
100
AcDbXrecord
 10
0.0
 20
0.0
 30
0.0
  0
XRECORD
  5
403C
102
{ACAD_REACTORS
330
4024
102
}
330
4024
100
AcDbXrecord
340
0
  0
XRECORD
  5
403D
102
{ACAD_REACTORS
330
4024
102
}
330
4024
100
AcDbXrecord
 70
     0
  0
XRECORD
  5
4030
102
{ACAD_REACTORS
330
4024
102
}
330
4024
100
AcDbXrecord
  1
{E43AC2DA-5D07-11D6-B7D0-00B0D0207C23}
  0
ENDSEC
  0
EOF
